Oops, an error
Loading. Please wait.

Reign In Us tab

version 3
version 3

Whole song

6,074 views 3 this week
no commentswrite comment
1 2 3 4 5
2 more votes to show rating
add to favorites
×
Save as Personal and add changes to this tab that will be seen only by you. Learn more ›
×
You can save this tab as Personal to edit and correct it or add notes. All changes will be seen only by you. Learn more »
launch autoscroll
font size
0
reset
how to read this tab
guitar tuner
edit
Autoscroll
slow
fast
+/-
esc
set tempo
stop
Author
Difficulty
Song: Reign in Us
Artist: Starfield
Album: I Will Go

Intro
Guitar 1
E|----------------------------------|
B|-13--13--12--12--13--13--15--15---|
G|---12--12--12--12--12--12—-12--12-|
D|----------------------------------|
A|----------------------------------|
E|----------------------------------|

Guitar 2 (Play right after guitar 1 finishes)
E|-------------------------------------13/15-15-12-12-------------|
B|-------------15-15-13-13----------------------------------------|
G|-12-12-12-12-------------12-12-12-12----------------12-12-12-12-|
D|----------------------------------------------------------------|
A|----------------------------------------------------------------|
E|----------------------------------------------------------------|

E|-------------------------------------|
B|-15-15-13-13-13-13-13-13-12-12-12-12-|
G|-------------------------------------|
D|-------------------------------------|
A|-------------------------------------|
E|-------------------------------------|

Chorus
Guitar 1
E|----15--------------|
B|-13----13-13-13-12--|
G|--------------------|
D|--------------------| Repeated for the duration of chorus
A|--------------------|
E|--------------------|

Post-chorus
Guitar 1
E|-------------------------------------------------------|
B|-------------10/12-12-12-12-------------13/15-15-15-15-|
G|----------------------------12-12-12-12----------------|
D|-10-10-10-10-------------------------------------------|
A|-------------------------------------------------------|
E|-------------------------------------------------------|

Chorus
Guitar 1
E|----15--------------|
B|-13----13-13-13-12--|
G|--------------------|
D|--------------------| Repeated again
A|--------------------|
E|--------------------|

Bridge 1
Guitar 1
E|-20-19-------------------------------------------|
B|-------20----------------18----18----17----17----|
G|----------19-19-19----17----17----17----17----17-|
D|-------------------------------------------------|
A|-------------------------------------------------|
E|-------------------------------------------------|

E|-20-19-------------------------------------------|
B|-------20--------------18----18----20----20------|
G|----------19-19-19--17----17----17----17----17---|
D|-------------------------------------------------|
A|-------------------------------------------------|
E|-------------------------------------------------|

E|-20-19-------------------------------------------|
B|-------20----------------18----18----20----20----|
G|----------19-19-19----17----17----17----17----17-|
D|-------------------------------------------------|
A|-------------------------------------------------|
E|-------------------------------------------------|

E|-19-20-------------------19-20-------------------|
B|-------20-------------20-------20----------------|
G|----------19-19-19-19-------------19-19-19----17-|
D|-------------------------------------------------|
A|-------------------------------------------------|
E|-------------------------------------------------|

Chorus
Guitar 1
E|----15--------------|
B|-13----13-13-13-12--|
G|--------------------|
D|--------------------| Repeated
A|--------------------|
E|--------------------|

Bridge 2
Guitar 1
E|-------------------------------------------------------|
B|-------------10/12-12-12-12-------------13/15-15-15-15-|
G|----------------------------12-12-12-12----------------|
D|-10-10-10-10-------------------------------------------| Repeat until end
A|-------------------------------------------------------| and fade out
E|-------------------------------------------------------|

Legend:
/ - Slide up

Lyrics:
You thought of us before the world began to breathe
And you knew our names before we came to be
You saw the very day we'd fall away from You
And how desperately we need to be redeemed

Lord Jesus come lead us
We're desperate for Your touch

Chorus:
Oh Great and Mighty One, with one desire we come
That You would reign, that You would reign in us
We're offering up our lives, a living sacrifice
That You would reign, that You would reign in us

Spirit of the Living God fall fresh again
Come search our hearts and purify our lives
We need Your perfect love
We need Your discipline
We're lost unless You guide us with Your light

Lord Jesus come lead us
We're desperate for Your touch

Chorus 

Bridge:
We cry out
For Your love to refine us cry out
For Your love to define us cry out
For Your mercy to keep us blameless until You return

Chorus 2x

You would reign in us

Bridge 2:
So reign, please reign in us
Come purify our hearts we need Your touch
Come cleanse us like a flood and send us out
So the world may know You reign, You reign in us

Repeat Bridge 2 3x

            
            
Suggest correction
Creating personal tab
Creating personal tab
You can edit any tab online and save it as your Personal.

You can edit, replace or remove any tab part or add personal notes – all changes will be seen only by you.

Personal tabs can be accessed anytime from any device, even offline.
Learn more »
Give kudos to tab author, rate the tab!
1 2 3 4 5
comments
print report bad tab
guest
You may want to rate the tab now too:
select rating
Wanna post a correction for this tab? Suggest correction