Oops, an error
Loading. Please wait.

Malmo bass

version 1
version 1

Whole song

4,251 views 6 this week
3 commentsread comments
1 2 3 4 5
x 6
add to favorites
×
Save as Personal and add changes to this tab that will be seen only by you. Learn more ›
×
You can save this tab as Personal to edit and correct it or add notes. All changes will be seen only by you. Learn more »
launch autoscroll
font size
0
reset
guitar tuner
edit
Autoscroll
slow
fast
+/-
esc
set tempo
stop
Author
Unregistered
(/) Slide Up  (\) Slide Down  (h) Hammer On  (p) Pull Off  (b) Bend (r) Release (v) Vibrato
Intro/Interlude:



G|------------------------------------------------------------------------|
D|------------------------------------------------------------------------|
A|--5-5-5-5-5-5-5-5--3-3-3-3-3-3-3-3-------------------3-3-3-3-3-3-3-3----|
E|------------------------------------5-5-5-5-5-5-5-5---------------------|


Main Riff

G|--------7--5--------------0--2-----------------------------5-----6--|
D|--------------7--------3-----------------7--5-----------------------|
A|--5-5----------------------------------------7--------3-----4-----|
E|----------------1-1---------------5-5----------------3-3--------------|

            
            
Suggest correction
Creating personal tab
Creating personal tab
You can edit any tab online and save it as your Personal.

You can edit, replace or remove any tab part or add personal notes – all changes will be seen only by you.

Personal tabs can be accessed anytime from any device, even offline.
Learn more »
comments
print report bad tab
3 comments total.
0 reply
Guitarist_67 94 Sep 27, 2013 05:09 PM

Pretty Cool tab! just a little bit of a correction to add, and I added in the slides.

G|-------5/7--5-----------------5--7\-----------------------------5---6--|
D|--------------7\--------5/7----------------5/7--5----------------------|
A|--5-5---------------5-5----------------------------7\--------3----4----|
E|--------------------------------------5-5----------------3-3-----------|

+4 reply
mosquitoo 76 Nov 10, 2013 04:35 PM

i've seen them live and shawn definitely plays this

G|--------7--5---------------------------------------------5-----6--|
D|--------------7-------3--5--7----------7--5-----------------------|
A|--5-5----------------------------------------7--------3-----4-----|
E|-----------------1-1-------------5-5-------------3-3--------------|


if you don't believe me play it with the song on record, it's exactly the same.

0 reply
SNOWFaKING 10 Jan 19, 2014 01:20 PM

Looked up a live video, yes you're right.

guest
Wanna post a correction for this tab? Suggest correction