Oops, an error
Loading. Please wait.

Ambon tab

by Stark
571 views 30 this week
3 commentsread comments
1 2 3 4 5
x 3
add to favorites
×
Save as Personal and add changes to this tab that will be seen only by you. Learn more ›
×
You can save this tab as Personal to edit and correct it or add notes. All changes will be seen only by you. Learn more »
launch autoscroll
font size
0
reset
how to read this tab
guitar tuner
edit
Autoscroll
slow
fast
+/-
esc
set tempo
stop
Author
Difficulty
[Intro]
e|---x---------0--x--------------------------------------x---------------------------|
B|---x-----0------x------0----------1p0---------------1--x-----0h1----3---1----------|
G|---x-----0------x------0-------0-------0------------2--x-----2------0---2----------|
D|---x------------x---------------------------------2----x-----2----------2----------|
A|---x--0--3------x---0--3----3----------------0---------x---0------------0----------|
E|---x------------x--------------------------------------x------------3--------------|

e|------------x-----------------------------------x-----------------------------------|
B|---------0--x-----------------------------------x-----0--------------0--------------|
G|---------0--x----4/5\4--4--2--0--------------2--x-----0-----------0-----0-----------|
D|-------0----x--------------------------------3--x--------------0--------------------|
A|--0---------x-----------------------------3-----x-----------------------------------|
E|-----3------x------------------------0h1--------x-----3-----3-----------------------|


[Verse]
e|------0--x----------x--------------x--------x-----------------x-------x----------------x-------x----|
B|---0-----x--0-------x-----------1--x---1----x--------------0--x---0---x----------------x---0---x----|
B|---0-----x--0-------x-----------2--x---1----x--------------0--x---0---x-------------2--x---0---x----|
D|---------x----------x--------2-----x---2----x-----------0-----x-------x-------------3--x-------x----|
A|---3-----x--3-------x-----0--------x---0----x---0-------------x-------x----------3-----x-------x----|
E|---------x----------x--0-----------x--------x------3----------x---3---x---0--1---------x---3---x----|

e|--------0--x----------x--------------x--------x-----------------x-------x----------------x-------x--|
B|-----0-----x--0-------x-----------1--x---1----x--------------0--x---0---x----------------x---0---x--|
B|-----0-----x--0-------x-----------2--x---1----x--------------0--x---0---x-------------2--x---0---x--|
D|-----------x----------x--------2-----x---2----x-----------0-----x-------x-------------3--x-------x--| 2x
A|--0--3-----x--3-------x-----0--------x---0----x---0-------------x-------x----------3-----x-------x--|
E|-----------x----------x--0-----------x--------x------3----------x---3---x---0--1---------x---3---x--|

[Refrain]
e|----------0--x-------------------x--------------x------------------------------------|
B|----------1--x-----1---------1---x---1------1---x---3--------------------------------|
G|----------0--x-----2---------2---x---2------2---x---0--------------------------------|
D|----------2--x-----2---------2---x---3------3---x---0--------------------------------|
A|--0---3---3--x--0--0------0------x--------------x------------------------------------|
E|-------------x-------------------x---1---1------x---3--------------------------------|

[Chorus]
e|------0--x----------x--------------x--------x-----------------x-------x----------------x-------x-----|
B|---0-----x--0-------x-----------1--x---1----x--------------0--x---0---x----------------x---0---x-----|
B|---0-----x--0-------x-----------2--x---1----x--------------0--x---0---x-------------2--x---0---x-----|
D|---------x----------x--------2-----x---2----x-----------0-----x-------x-------------3--x-------x-----|
A|---3-----x--3-------x-----0--------x---0----x---0-------------x-------x----------3-----x-------x-----|
E|---------x----------x--0-----------x--------x------3----------x---3---x---0--1---------x---3---x-----|

e|--------0--x----------x--------------x--------x-----------------x-------x----------------x---------3--x--|
B|-----0-----x--0-------x-----------1--x---1----x--------------0--x---0---x----------------x---0-----3--x--|
B|-----0-----x--0-------x-----------2--x---1----x--------------0--x---0---x-------------2--x---0-----0--x--|
D|-----------x----------x--------2-----x---2----x-----------0-----x-------x-------------3--x---------0--x--| 
A|--0--3-----x--3-------x-----0--------x---0----x---0-------------x-------x----------3-----x---------2--x--|
E|-----------x----------x--0-----------x--------x------3----------x---3---x---0--1---------x---3-----3--x--|

[Verse]
e|--------0--x----------x--------------x--------x-----------------x-------x----------------x-------x----|
B|-----0-----x--0-------x-----------1--x---1----x--------------0--x---0---x----------------x---0---x----|
B|-----0-----x--0-------x-----------2--x---1----x--------------0--x---0---x-------------2--x---0---x----|
D|-----------x----------x--------2-----x---2----x-----------0-----x-------x-------------3--x-------x----|
A|--0--3-----x--3-------x-----0--------x---0----x---0-------------x-------x----------3-----x-------x----|
E|-----------x----------x--0-----------x--------x------3----------x---3---x---0--1---------x---3---x----|

e|--------0--x----------x--------------x--------x-----------------x-------x----------------x---------|
B|-----0-----x--0-------x-----------1--x---1----x--------------0--x---0---x----------------x---0-----|
B|-----0-----x--0-------x-----------2--x---1----x--------------0--x---0---x-------------2--x---0-----|
D|-----------x----------x--------2-----x---2----x-----------0-----x-------x-------------3--x---------| 
A|--0--3-----x--3-------x-----0--------x---0----x---0-------------x-------x----------3-----x---------|
E|-----------x----------x--0-----------x--------x------3----------x---3---x---0--1---------x---3-----|

[Refrain]
e|----0------0----x------------------x--------------x------------------------------------|
B|----1------1----x----1---------1---x---1------1---x---3--------------------------------|
G|----0------0----x----2---------2---x---2------2---x---0--------------------------------|
D|----2------2----x----2---------2---x---3------3---x---0--------------------------------|
A|----3------3----x----0------0------x--------------x------------------------------------|
E|----------------x------------------x---1---1------x---3--------------------------------|

[Chorus]
e|------0--x----------x--------------x--------x-----------------x-------x----------------x-------x----|
B|---0-----x--0-------x-----------1--x---1----x--------------0--x---0---x----------------x---0---x----|
B|---0-----x--0-------x-----------2--x---1----x--------------0--x---0---x-------------2--x---0---x----|
D|---------x----------x--------2-----x---2----x-----------0-----x-------x-------------3--x-------x----|
A|---3-----x--3-------x-----0--------x---0----x---0-------------x-------x----------3-----x-------x----|
E|---------x----------x--0-----------x--------x------3----------x---3---x---0--1---------x---3---x----|

e|--------0--x----------x--------------x--------x-----------------x-------x----------------x---------|
B|-----0-----x--0-------x-----------1--x---1----x--------------0--x---0---x----------------x---0-----|
B|-----0-----x--0-------x-----------2--x---1----x--------------0--x---0---x-------------2--x---0-----|
D|-----------x----------x--------2-----x---2----x-----------0-----x-------x-------------3--x---------| 
A|--0--3-----x--3-------x-----0--------x---0----x---0-------------x-------x----------3-----x---------|
E|-----------x----------x--0-----------x--------x------3----------x---3---x---0--1---------x---3-----|

[Refrain]
e|----0------0----x------------------x--------------x---------x---------------------------|
B|----1------1----x----1---------1---x---1------1---x---3-----x---------------------------|
G|----0------0----x----2---------2---x---2------2---x---0-----x---------------------------|
D|----2------2----x----2---------2---x---3------3---x---0-----x---------------------------|
A|----3------3----x----0------0------x--------------x---------x---------------------------|
E|----------------x------------------x---1---1------x---3-----x---------------------------|

[Verse]
e|--------0--x----------x--------------x--------x-----------------x-------x----------------x-------x-----|
B|-----0-----x--0-------x-----------1--x---1----x--------------0--x---0---x----------------x---0---x-----|
B|-----0-----x--0-------x-----------2--x---1----x--------------0--x---0---x-------------2--x---0---x-----|
D|-----------x----------x--------2-----x---2----x-----------0-----x-------x-------------3--x-------x-----|
A|--0--3-----x--3-------x-----0--------x---0----x---0-------------x-------x----------3-----x-------x-----|
E|-----------x----------x--0-----------x--------x------3----------x---3---x---0--1---------x---3---x-----|

e|--------0--x----------x--------------x--------x----------------x----------------x----------------x-----x-|
B|-----0-----x--0-------x-----------1--x---1----x-------------0--x---0---------0--x-------------1--x--0--x-|
B|-----0-----x--0-------x-----------2--x---1----x-------------0--x---0---------0--x-------------2--x--0--x-|
D|-----------x----------x--------2-----x---2----x----------0-----x----------0-----x-------------3--x-----x-|
A|--0--3-----x--3-------x-----0--------x---0----x---0------------x----------------x----------3-----x-----x-|
E|-----------x----------x--0-----------x--------x------3---------x---3---3--------x-3--0--1--------x--3--x-|

e|--------0--x----------x--------------x--------x-----------------x-------x----------------x-------x--|
B|-----0-----x--0-------x-----------1--x---1----x--------------0--x---0---x----------------x---0---x--|
B|-----0-----x--0-------x-----------2--x---1----x--------------0--x---0---x-------------2--x---0---x--|
D|-----------x----------x--------2-----x---2----x-----------0-----x-------x-------------3--x-------x--|
A|--0--3-----x--3-------x-----0--------x---0----x---0-------------x-------x----------3-----x-------x--|
E|-----------x----------x--0-----------x--------x------3----------x---3---x---0--1---------x---3---x--|

e|--------0--x----------x--------------x--------x-----------------x-------x-----x---------------x-------x--|
B|-----0-----x--0-------x-----------1--x---1----x--------------0--x---0---x--0--x---------------x---0---x--|
B|-----0-----x--0-------x-----------2--x---1----x--------------0--x---0---x--0--x------------2--x---0---x--|
D|-----------x----------x--------2-----x---2----x-----------0-----x-------x-----x------------3--x-------x--|
A|--0--3-----x--3-------x-----0--------x---0----x---0-------------x-------x-----x---------3-----x-------x--|
E|-----------x----------x--0-----------x--------x------3----------x---3---x--3--x--0--1---------x---3---x--|

e|--------0--x----------x--------------x--------x-----------------x-------x----------------x-------x--|
B|-----0-----x--0-------x-----------1--x---1----x--------------0--x---0---x----------------x---0---x--|
B|-----0-----x--0-------x-----------2--x---1----x--------------0--x---0---x-------------2--x---0---x--|
D|-----------x----------x--------2-----x---2----x-----------0-----x-------x-------------3--x-------x--| 3x
A|--0--3-----x--3-------x-----0--------x---0----x---0-------------x-------x----------3-----x-------x--|
E|-----------x----------x--0-----------x--------x------3----------x---3---x---0--1---------x---3---x--|

e|--------0--x----------x--------------x--------x----------------x----------------x----------------x------|
B|-----0-----x--0-------x-----------1--x---1----x-------------0--x---0---------0--x-------------1--x--0---|
B|-----0-----x--0-------x-----------2--x---1----x-------------0--x---0---------0--x-------------2--x--0---|
D|-----------x----------x--------2-----x---2----x----------0-----x----------0-----x-------------3--x------|
A|--0--3-----x--3-------x-----0--------x---0----x---0------------x----------------x----------3-----x------|
E|-----------x----------x--0-----------x--------x------3---------x---3---3--------x-3--0--1--------x--3---|

[Outro]
e|-----------1------------------------------------------------------------------------------------------|
B|-----0----------0-------------1----1----------1------------0---0--------------0-----------------------|
G|-----0----------0-------------2----2--------------------0------0----------2---0-----------------------|
D|---------------------------2-------2------2----------0---------0----------3---0-----------------------|
A|--3-----3-------3-------0----------0---0-------------------------------3------------------------------|
E|--------------------------------------------------3------------3----1---------3-----------------------|

e|----------1--------------------------------------------------------------0-----|
B|------0---0------0----------1---1---------0---0-----------1---3----------1-----|
G|------0---0------0----------2---2---------0---0-----------2---0----------0-----|
D|----------------------------2---2---------0---0-----------3---0----------2-----|
A|---3------3------3-------0------0---0------------------3-------------0---3-----|
E|---------------------------------------3------3-----1---------3---3------------|



************************************

| x  Dead note
| h  Hammer-on
| p  Pull-off
| /  Slide up
| \  Slide down

************************************

            
            
Suggest correction
Creating personal tab
Creating personal tab
You can edit any tab online and save it as your Personal.

You can edit, replace or remove any tab part or add personal notes – all changes will be seen only by you.

Personal tabs can be accessed anytime from any device, even offline.
Learn more »
Give kudos to tab author, rate the tab!
1 2 3 4 5
comments
print report bad tab
3 comments total.
0 reply
marcuslabalan 10 Feb 28, 2017 07:52 AM

Galing galing galing niyo po sana mameet ko po kayo

+1 reply
kayceevarela 53 Feb 28, 2017 07:53 AM

Sige po taga san po kayo? :) ?

0 reply
krishanevalenz_ 10 Mar 03, 2017 01:22 AM

Yeheyyy ❤️

guest
You may want to rate the tab now too:
select rating
Wanna post a correction for this tab? Suggest correction