Oops, an error
Loading. Please wait.

A Song Is A Weapon tab

by Stars
597 views 3 this week
no commentswrite comment
1 2 3 4 5
3 more votes to show rating
add to favorites
×
Save as Personal and add changes to this tab that will be seen only by you. Learn more ›
×
You can save this tab as Personal to edit and correct it or add notes. All changes will be seen only by you. Learn more »
launch autoscroll
font size
0
reset
how to read this tab
guitar tuner
edit
Autoscroll
slow
fast
+/-
esc
set tempo
stop
-------------------------------------------------------------------------------
                             A song is a Weapon - Stars
-------------------------------------------------------------------------------
Tabbed by: Wynand Badenhorst
E-mail:    wynandbadenhorst@hotmail.com

Tuning: Standard

Part A (x4)

e|---6-------6-------6-------6-------5-------5-------3-------3---------------|
B|-------6-------6-------6-------6-------6-------6-------5-------5-----------|
G|---------------------------------------------------------------------------|
D|---------------------------------------------------------------------------|
A|---------------------------------------------------------------------------|
E|---------------------------------------------------------------------------|

Part B (x1)

e|---6-------6-------6-------6-------5-------5-------3-------3---------------|
B|-------6-------6-------6-------6-------6-------6-------5-------5-----------|
G|---------------------------------------------------------------------------|
D|---------------------------------------------------------------------------|
A|---------------------------------------------------------------------------|
E|---------------------------------------------------------------------------|
 |   Gmin                            Fmaj            Cmaj                    |
e|---------------------------------------------------0---0---0---0-----------|
B|---------------------------------------------------1---1---1---1-----------|
G|---------------------------------------------------0---0---0---0-----------|
D|---------------------------------------------------2---2---2---2-----------|
A|---------------------------------------------------3---3---3---3-----------|
E|---------------------------------------------------------------------------|

Part C (x1)
                                                                             
e|-----------6---------------------------------------------------------------|
B|-----------6---------------------------------------------------------------|
G|---------------------------------------------------------------------------|
D|---------------------------------------------------------------------------|
A|---------------------------------------------------------------------------|
E|---------------------------------------------------------------------------|
 |    h      Gmin                                                            |
e|-----------3---------------------------------------------------------------|
B|-----------3-----------------------6---3---6---3---5---5---5---5-----------|
G|-----3-----3-----------------------5---5---5---5---5---5---5---5-----------|
D|---35------5---------------------------------------------------------------|
A|-----------5---------------------------------------------------------------|
E|-----------3---------------------------------------------------------------|

e|-----------6-----------------------5---5---5---5---3---3---3---3-----------|
B|-----------6-----------------------6---6---6---6---5---5---5---5-----------|
G|---------------------------------------------------------------------------|
D|---------------------------------------------------------------------------|
A|---------------------------------------------------------------------------|
E|---------------------------------------------------------------------------|
 |    h      Gmin    ~       ~                                               |
e|-----------3---------------------------------------------------------------|
B|-----------3-----------------------6---6---6---6---5---5---5---5-----------|
G|-----3-----3-----------------------5---5---5---5---5---5---5---5-----------|
D|---35------5---------------------------------------------------------------|
A|-----------5---------------------------------------------------------------|
E|-----------3---------------------------------------------------------------|

e|-----------6---------------------------------------------------------------|
B|-----------6---------------------------------------------------------------|
G|---------------------------------------------------------------------------|
D|---------------------------------------------------------------------------|
A|---------------------------------------------------------------------------|
E|---------------------------------------------------------------------------|
 |    h      Gmin                                                            |
e|-----------3---------------------------------------------------------------|
B|-----------3-----------------------6---6---6---6---5---5---5---5-----------|
G|-----3-----3-----------------------5---5---5---5---5---5---5---5-----------|
D|---35------5---------------------------------------------------------------|
A|-----------5---------------------------------------------------------------|
E|-----------3---------------------------------------------------------------|

e|-------6-------6-------6-------6-------5-------5---3-----------------------|
B|---6-------6-------6-------6-------6-------6-------5-----------------------|
G|---------------------------------------------------------------------------|
D|---------------------------------------------------------------------------|
A|---------------------------------------------------------------------------|
E|---------------------------------------------------------------------------|
 |                                                                           |
e|---------------------------------------------------------------------------|
B|-----------------------------------6---6---6---6---5-----------------------|
G|---3-------3-------3-------3-------5---5---5---5---5-----------------------|
D|-------3-------3-------3-------3-------------------------------------------|
A|---------------------------------------------------------------------------|
E|---------------------------------------------------------------------------|

Part D (x4)
     .   .   .   .   .   .   .   .   .   .   .    .   .   .   .   .      
e|---6--------------------------------------------6---8----------------------|
B|-------8-----------------------8---6-------6------------8------------------|
G|-----------7---------------7-----------7--------------------7--------------|
D|---------------8---5---8----------------------------------------8----------|
A|---------------------------------------------------------------------------|
E|---------------------------------------------------------------------------|
 |           Gmin            Gmin            Fmaj             Cmaj           |
e|-----------3---------------3---------------1----------------0--------------|
B|-----------3---------------3---------------1----------------1--------------|
G|-----------3---------------3---------------2----------------0--------------|
D|-----------5---------------5---------------3----------------2--------------|
A|-----------5---------------5---------------3----------------3--------------|
E|-----------3---------------3---------------1-------------------------------|

Part A (x2)

Part C (x1)

Part D (x1)

Part E (x1)
     .   .   .   .   .   .   .   .   .   .   .    .   .   .   .   .     
e|---6--------------------------------------------6---8----------------------|
B|-------8-----------------------8---6-------6------------8------------------|
G|-----------7---------------7-----------7--------------------7--------------|
D|---------------8---5---8----------------------------------------8----------|
A|---------------------------------------------------------------------------|
E|---------------------------------------------------------------------------|
 |           Gmin            Gmin            Fmaj      h                     |
e|-----------3---------------3---------------1-------------------------------|
B|-----------3---------------3---------------1-------------------------------|
G|-----------3---------------3---------------2-----------5---5---------------|
D|-----------5---------------5---------------3-------5-7---------7-----------|
A|-----------5---------------5---------------3-------------------------------|
E|---3---3---3-------3---3---3-------1---1---1-------------------------------|

e|---------------------------------------------------------------------------|
B|---------------------------------------------------------------------------|
G|---------------------------------------------------------------------------|
D|---------------------------------------------------------------------------|
A|---------------------------------------------------------------------------|
E|---------------------------------------------------------------------------|
 |                                     h               h                     |
e|---------------------------------------------------------------------------|
B|---------------------------------------------------------------------------|
G|-------3---3-----------3---3---------------------------5---5---------------|
D|---5-----------5---5-----------5-------3---3---5---5-7---------7-----------|
A|-----------------------------------3-5-------------------------------------|
E|---------------------------------------------------------------------------|

e|---------------------------------------------------------------------------|
B|---------------------------------------------------------------------------|
G|---------------------------------------------------------------------------|
D|---------------------------------------------------------------------------|
A|---------------------------------------------------------------------------|
E|---------------------------------------------------------------------------|
 |                                                                           |
e|---------------------------------------------------------------------------|
B|---------------------------------------------------------------------------|
G|------3---3-----------3---3------------------------------------------------|
D|--5-----------5---5-----------5------------3---5---------------------------|
A|-----------------------------------3---5-----------------------------------|
E|---------------------------------------------------------------------------|

Part A (x2)

Part F (x8)
                     .   .   .   .   .   .   .    .   .   .   .   .     
e|-------------------6----------------------------6---8----------------------|
B|-----------------------8--------------------------------8------------------|
G|---------------------------7---------------7----------------7--------------|
D|-------------------------------8---5---8------------------------8----------|
A|---------------------------------------------------------------------------|
E|---------------------------------------------------------------------------|
 |    h      Gmin            Gmin            Fmaj            Cmaj            |
e|-----------3---------------------------------------------------------------|
B|-----------3-----------6---6---6---6---6---6---6---6---6---5---5---5---5---|
G|-----3-----3-----------5---5---5---5---5---5---5---5---5---5---5---5---5---|
D|---35------5---------------------------------------------------------------|
A|-----------5---------------------------------------------------------------|
E|-----------3---------------------------------------------------------------|


Part G (x2)

e|-------6-------6-------6-------6-------5-------5-------3-------3-----------|
B|---6-------6-------6-------6-------6-------6-------5-------5---------------|
G|---------------------------------------------------------------------------|
D|---------------------------------------------------------------------------|
A|---------------------------------------------------------------------------|
E|---------------------------------------------------------------------------|
 |                                                                           |
e|---3-----------------------------------------------------------------------|
B|---3-----------------------------------------------------------------------|
G|---3-----------------------------------------------------------------------|
D|---5-----------------------------------------------------------------------|
A|---5-----------------------------------------------------------------------|
E|---5-----------------------------------------------------------------------|

Part H(x2)

e|-------6-------6-------6-------6-------5-------5-------3-------3-----------|
B|---6-------6-------6-------6-------6-------6-------5-------5---------------|
G|---------------------------------------------------------------------------|
D|---------------------------------------------------------------------------|
A|---------------------------------------------------------------------------|
E|---------------------------------------------------------------------------|
 |                                                                           |
e|---5-----------------------------------------------------------------------|
B|---5-----------------------------------------------------------------------|
G|---3-----------------------------------------------------------------------|
D|---5-----------------------------------------------------------------------|
A|---5-----------------------------------------------------------------------|
E|---5-----------------------------------------------------------------------|

Part I (x1)
                                                                            
e|---5-----------------------------------------------------------------------|
B|---5-----------------------------------------------------------------------|
G|---------------------------------------------------------------------------|
D|---------------------------------------------------------------------------|
A|---------------------------------------------------------------------------|
E|---------------------------------------------------------------------------|
 |                                                                           |
e|---3-----------------------------------------------------------------------|
B|---3-----------------------------------------------------------------------|
G|---3-----------------------------------------------------------------------|
D|---5-----------------------------------------------------------------------|
A|---5-----------------------------------------------------------------------|
E|---5-----------------------------------------------------------------------|
************************************

| /   slide up
| \   slide down
| h   hammer-on
| p   pull-off
| ~   vibrato
| +   harmonic
| x   Mute note
| b   Bend
| pb  Pre-bend
| br  Bend release
| pbr Pre-bend release
| brb Bend release bend
| .   Staccato note

************************************

            
            
Suggest correction
Creating personal tab
Creating personal tab
You can edit any tab online and save it as your Personal.

You can edit, replace or remove any tab part or add personal notes – all changes will be seen only by you.

Personal tabs can be accessed anytime from any device, even offline.
Learn more »
Give kudos to tab author, rate the tab!
1 2 3 4 5
comments
print report bad tab
guest
Wanna post a correction for this tab? Suggest correction