Oops, an error
Loading. Please wait.

Some Of Us chords

version 1
version 1

Whole song

5,894 views 3 this week
2 commentsread comments
1 2 3 4 5
2 more votes to show rating
add to favorites
×
Save as Personal and add changes to this tab that will be seen only by you. Learn more ›
×
You can save this tab as Personal to edit and correct it or add notes. All changes will be seen only by you. Learn more »
launch autoscroll
font size
0
reset
transpose
0
reset
display chords
guitar tuner
edit
Autoscroll
slow
fast
+/-
esc
set tempo
stop
Strumming
There is no strumming pattern for this song yet. and get +5 IQ
Intro - F C x2

[F]Hurt you today
That isn't my name
You were [C]fast asleep

For[F]get what he did
Can I be the kid
For your [C]soul to keep

[F]Some of us laugh
Some of us cry
[C]Some of us smoke
Some of us lie
But it's [F]all just the way
That we [C]cope with our lives

[F]None of those freaks
Were broken like me
By their [C]own mistrust

We [F]all have our faults
But mine come in waves
That you [C]turn into rust

[F]Some of us laugh
Some of us lie
[C]Some of us sit here
With tears in our eyes
But it's [F]all just the way
That we're [C]faced by our lives

(Break + Humming - F C x2)

[F]Some of us laugh
Some of us cry
[C]Some of us smoke
Some of us lie
But it's [F]all just the way
That we [C]cope with our lives

[F]Some of us laugh
Some of us cry
[C]Some of us smoke
And some of us lie
But it's [F]all just the way
That we [C]cope with our lives

My wondering [C]soul
Found solace at [Am]last
I wanted to [Dm7]know
How long it would [G]last

She's loosing con[C]trol
I'm coming down [Am]fast
Favourite [Dm7]lady
Now under my [G]back
She's gonna be right [C]back
Oh-oh-oh-oh

            
            
Suggest correction
Creating personal tab
Creating personal tab
You can edit any tab online and save it as your Personal.

You can edit, replace or remove any tab part or add personal notes – all changes will be seen only by you.

Personal tabs can be accessed anytime from any device, even offline.
Learn more »
Give kudos to tab author, rate the tab!
1 2 3 4 5
comments
print report bad tab
2 comments total.
0 reply
zakky 10 Sep 05, 2005 08:00 PM

e-1---1---1---1---0--------------------------------------
b-0---1---0---1---1-------------------------------------
g-2---2---2---2---0--------------------------------------
d-3---3---3---3---2--------------------------------------
a-3---3---3---3---3--------------------------------------
e-x---x---x---x---3---------------------------------------

try this for the start of the song

0 reply
zakky 10 Sep 05, 2005 08:00 PM

e-1---1---1---1---0--------------------------------------
b-0---1---0---1---1-------------------------------------
g-2---2---2---2---0--------------------------------------
d-3---3---3---3---2--------------------------------------
a-3---3---3---3---3--------------------------------------
e-x---x---x---x---3---------------------------------------

try this for the start of the song

guest
Wanna post a correction for this tab? Suggest correction