Oops, an error
Loading. Please wait.

All You Are Is History bass

version 1
version 1

Whole song

Interactive

1,624 views 21 this week
2 commentsread comments
1 2 3 4 5
3 more votes to show rating
add to favorites
×
Save as Personal and add changes to this tab that will be seen only by you. Learn more ›
×
You can save this tab as Personal to edit and correct it or add notes. All changes will be seen only by you. Learn more »
launch autoscroll
font size
0
reset
guitar tuner
edit
Autoscroll
slow
fast
+/-
esc
set tempo
stop
State Champs - All You Are Is History

Tabbed by: Ash (XxThreeCheersxX)
email: burdickash@gmail.com

Tuning: Drop C# (C# G# C# F#)

Intro
F#|--------------------------------------------------|
C#|--------------------------------------------------|
G#|-----------------------4x----4x----0--0-0-0-0-0-0-|
C#|-2x--------2x----2x-------------------------------|

F#|--------------------------------------------------|
C#|--------------------------------------------------|
G#|-----------------------4x----4x----2--2-2-2-2-2-2-|
C#|-2x--------2x----2x-------------------------------|

Verse I
F#|----------------------------------------------------------|
C#|----------------------------------------------------------|
G#|-----7~---------------2-2x----4-4x------------------------| x 2
C#|-7-7----------6-6x------------------------4-4x----6-6x----|

F#|----------------------------------------------------------|
C#|----------------------------------------------------------|
G#|----------------------2-2x----4-4x------------------------| 
C#|-7-7x---------6-6x------------------------4-4x----6-6x----|

F#|----------------------------------------------------------|
C#|----------------------------------------------------------|
G#|----------------------2-2x----4-4x------------------------| 
C#|-7-7x---------6-6x------------------------4-4-4-4-6-6-6-6-|

Chorus
F#|-----------------------------------------------------------------|
C#|-----------------------------------------------------------------|
G#|-----------------------------------------------------------------|
C#|-----7-7-7-7-7-7-2-2-2-2-2-2-2-2-6-6-6-6-6-6-6-6-4-4-4-4-4-4-4-4-|

F#|-----------------------------------------------------------------|
C#|-----------------------------------------------------------------|
G#|---------------------------------4-4-4-4-4-4-4-4-2-2-2-2-2-2-2-2-|
C#|-7-7-7-7-7-7-7-7-2-2-2-2-2-2-2-2---------------------------------|

F#|-----------------------------------------------------------------|
C#|-----------------------------------------------------------------|
G#|---------------------------------2-2-2-2-2-2-2-2-4-4-4-4-4-4-4-4-|
C#|-----7-7-7-7-7-7-2-2-2-2-2-2-2-2---------------------------------|

F#|-----------------------------------------------------------------|
C#|-----------------------------------------------------------------|
G#|-----------------------------------------------------------------|
C#|-7-7-7-7-7-7-7-7-7-7-7-7-7-7-7-7-9-9-9-9-9-9-9-9-9-9-9-9-5-5-5-5-|

Intro x 1

Verse II
F#|-------------------------------------------------------------------------------|
C#|-------------------------------------------------------------------------------|
G#|-------------------------------------------------------------------------------|
C#|-2-2-2~--------------6~-------------7~----------------/19~------------5-5-5-5--|

F#|-----------------------------------------------------------------|
C#|-----------------------------------------------------------------|
G#|-----------------------------------------------------------------|
C#|-2-2-2x----2x--2x--2-2x--2-2-2x--6-6-6x----6x--6x--6-6x--6-6-6x--|

F#|-----------------------------------------------------------------|
C#|-----------------------------------------------------------------|
G#|-----------------------------------------------------------------|
C#|-7-7-7x----7x--7x--7-7x--7-7-7x--4-4-4-4-4-4-4-4-6-6-6-6-6-6-6-6-|

Chorus II (contains a fill in the last line)
F#|-----------------------------------------------------------------|
C#|-----------------------------------------------------------------|
G#|-----------------------------------------------------------------|
C#|-----7-7-7-7-7-7-2-2-2-2-2-2-2-2-6-6-6-6-6-6-6-6-4-4-4-4-4-4-4-4-|

F#|-----------------------------------------------------------------|
C#|-----------------------------------------------------------------|
G#|---------------------------------4-4-4-4-4-4-4-4-2-2-2-2-2-2-2-2-|
C#|-7-7-7-7-7-7-7-7-2-2-2-2-2-2-2-2---------------------------------|

F#|-----------------------------------------------------------------|
C#|-----------------------------------------------------------------|
G#|---------------------------------2-2-2-2-2-2-2-2-4-4-4-4-4-4-4-4-|
C#|-----7-7-7-7-7-7-2-2-2-2-2-2-2-2---------------------------------|

F#|-----------------------------------------------------------------|
C#|-----------------7-7-7-7-6-7-6-7---------------------------------|
G#|---------------------------------2-2-2-2-2-2-2-2-2-2-2-2-3-3-3-3-|
C#|-7-7-7-7-7-7-7-7-------------------------------------------------|

Bridge
F#|-----------------------------------------------------------------|
C#|-----------------------------------------------------------------|
G#|-4-4-4-4x--------4-4-4-4x----2x----0-0-0-0x----0-0-0-0x----2x----|
C#|-----------------------------------------------------------------|

F#|-----------------------------------------------------------------|
C#|-----------------------------------------------------------------|
G#|-4-4-4-4x--------4-4-4-4x----2x----0-0-0-0x----0-0-0-0x----------| x 2
C#|-----------------------------------------------------------2x----|

F#|-----------------------------------------------------------------|
C#|-----------------------------------------------------------------|
G#|-4-4-4-4x--------4-4-4-4x----2x----0-0-0-0x----0-0-0-0x----2x----|
C#|-----------------------------------------------------------------|

Interlude
F#|----------------------------------------------------------|
C#|----------------------------------------------------------|
G#|-----7~---------------2-2x----4-4x------------------------| 
C#|-7-7----------6-6x------------------------4-4x----6-6x----|

F#|----------------------------------------------------------|
C#|----------------------------------------------------------|
G#|-----7~---------------2-2x----4-4x------------------------| 
C#|-7-7----------6-6x------------------------4-4-4-4-6-6-6-6-|

Final Chorus
F#|-----------------------------------------------------------------|
C#|-----------------------------------------------------------------|
G#|-----------------------------------------------------------------|
C#|-----------------2-2-2-2-2-2-2-2-6-6-6-6-6-6-6-6-4-4-4-4-4-4-4-4-|

F#|-----------------------------------------------------------------|
C#|-----------------------------------------------------------------|
G#|---------------------------------4-4-4-4-4-4-4-4-2-2-2-2-2-2-2-2-|
C#|-7-7-7-7-7-7-7-7-2-2-2-2-2-2-2-2---------------------------------|

F#|-----------------------------------------------------------------|
C#|-----------------------------------------------------------------|
G#|---------------------------------2-2-2-2-2-2-2-2-4-4-4-4-4-4-4-4-|
C#|-----7-7-7-7-7-7-2-2-2-2-2-2-2-2---------------------------------|

F#|-----------------------------------------------------------------|
C#|-----------------7-7-7-7-6-7-6-7---------------------------------|
G#|---------------------------------2-2-2-2-2-2-2-2-2-2-2-2---------|
C#|-7-7-7-7-7-7-7-7-----------------------------------------6-6-6-6-|

F#|-----------------------------------------------------------------|
C#|-----------------7-7-7-7-6-7-6-7-9-9-9-9-9-9-9-9-9-9-9-9---------|
G#|-----------------------------------------------------------------|
C#|-7-7-7-7-7-7-7-7-----------------------------------------5-5-5-5-|

Outro
F#|--------------------------------------------------|
C#|--------------------------------------------------|
G#|-----------------------4x----4x----0--0-0-0-0-0-0-|
C#|-2x--------2x----2x-------------------------------|

F#|--------------------------------------------------|
C#|--------------------------------------------------|
G#|-----------------------4x----4x----0~-------------|
C#|-2x--------2x----2x-------------------------------|


happy playing!
************************************

| x   Dead note
| g   Grace note
| (n) Ghost note
| h   Hammer-on
| p   Pull-off
| r   Release
| >   Accented note
| t   Tapping
| b   Bend
| br  Bend release
| pb  Pre-bend
| pbr Pre-bend release
| /   Slide up
| \   Slide down
| ~   Vibrato
| s   Slap
| P   Pop
| PM  Palm mute
| TR  Trill
| N   Tremolo

************************************

            
            
Suggest correction
Creating personal tab
Creating personal tab
You can edit any tab online and save it as your Personal.

You can edit, replace or remove any tab part or add personal notes – all changes will be seen only by you.

Personal tabs can be accessed anytime from any device, even offline.
Learn more »
Give kudos to tab author, rate the tab!
1 2 3 4 5
comments
print report bad tab
2 comments total.
0 reply
C1clxne 10 Jul 27, 2016 08:55 AM

Will you be tabbing any more songs from the album? :)

0 reply
XxThreeCheersxX 13,640 Jul 27, 2016 05:55 PM

once im less busy I definitely plan to!!

guest
You may want to rate the tab now too:
select rating
Wanna post a correction for this tab? Suggest correction