Oops, an error
Loading. Please wait.

Back And Forth tab

version 1
version 1

Whole song

Interactive

361 views 3 this week
1 commentread comment
1 2 3 4 5
2 more votes to show rating
add to favorites
×
Save as Personal and add changes to this tab that will be seen only by you. Learn more ›
×
You can save this tab as Personal to edit and correct it or add notes. All changes will be seen only by you. Learn more »
launch autoscroll
font size
0
reset
how to read this tab
guitar tuner
edit
Autoscroll
slow
fast
+/-
esc
set tempo
stop
-------------------------------------------------------------------------------
                            State Champs - Back And Forth
-------------------------------------------------------------------------------
Tabbed by: scottismad
E-mail: scott.simpson@hotmail.com.au

Tuning: Drop C#


[Intro]
0:00 - Lead
D#|---------------------------------------------------------------------------|
A#|---------------------------------------------------------------------------|
F#|----6--6--6--6--6--6--6--6--6--6--6--6--6--6--6--6-------------------------|
C#|----x--x--x--x--x--x--x--x--x--x--x--x--x--x--x--x-------------------------|  x5
G#|----4--4--4--4--4--4--4--4--4--4--4--4--4--4--4--4-------------------------|
C#|---------------------------------------------------------------------------|

D#|---------------------------------------------------------------------------|
A#|---------------------------------------------------------------------------|
F#|----6--6--6--6--6--6--6--6-----11-11-11----10-10---------------------------|
C#|----x--x--x--x--x--x--x--x-----x--x--x-----x--x----------------------------|
G#|----4--4--4--4--4--4--4--4-----9--9--9-----8--8----------------------------|
C#|---------------------------------------------------------------------------|


0:05 - Rhythm
D#|---------------------------------------------------------------------------|
A#|---------------------------------------------------------------------------|
F#|---------------------------------------------------------------------------|
C#|----6--6-----6--6--6-----6-------------------------------------------------|
G#|----4--4-----4--4--4-----4--6--6-----6--6--6-----6-------------------------|
C#|----------------------------6--6-----6--6--6-----6-------------------------|
       *  *     *  *  *     *  *  *     *  *  *     *

D#|---------------------------------------------------------------------------|
A#|---------------------------------------------------------------------------|
F#|---------------------------------------------------------------------------|
C#|---------------------------------------------------------------------------|
G#|----4--4-----4--4--4-----4--4--4-----4--4--4-----4-------------------------|
C#|----4--4-----4--4--4-----4--4--4-----4--4--4-----4-------------------------|
       *  *     *  *  *     *  *  *     *  *  *     *

D#|---------------------------------------------------------------------------|
A#|---------------------------------------------------------------------------|
F#|---------------------------------------------------------------------------|
C#|----6--6-----6--6--6-----6-------------------------------------------------|
G#|----4--4-----4--4--4-----4--6--6-----6--6--6-----6-------------------------|
C#|----------------------------6--6-----6--6--6-----6-------------------------|
       *  *     *  *  *     *  *  *     *  *  *     *

D#|---------------------------------------------------------------------------|
A#|---------------------------------------------------------------------------|
F#|---------------------------------------------------------------------------|
C#|-------------------------------7--7--7-----6--6----------------------------|
G#|----4--4-----4--4--4-----4-----7--7--7-----6--6----------------------------|
C#|----4--4-----4--4--4-----4-----7--7--7-----6--6----------------------------|
       *  *     *  *  *     *  





[Pre Chorus]
0:17 - Rhythm
D#|---------------------------------------------------------------------------|
A#|---------------------------------------------------------------------------|
F#|---------------------------------------------------------------------------|
C#|----6--6-----6--6--6-----6-------------------------------------------------|
G#|----4--4-----4--4--4-----4--6--6-----6--6--6-----6-------------------------|
C#|----------------------------6--6-----6--6--6-----6-------------------------|
       *  *     *  *  *     *  *  *     *  *  *     *

D#|---------------------------------------------------------------------------|
A#|---------------------------------------------------------------------------|
F#|---------------------------------------------------------------------------|
C#|---------------------------------------------------------------------------|
G#|----4--4-----4--4--4-----4--4--4-----4--4--4-----4-------------------------|
C#|----4--4-----4--4--4-----4--4--4-----4--4--4-----4-------------------------|
       *  *     *  *  *     *  *  *     *  *  *     *

D#|---------------------------------------------------------------------------|
A#|---------------------------------------------------------------------------|
F#|---------------------------------------------------------------------------|
C#|----6--6-----6--6--6-----6-------------------------------------------------|
G#|----4--4-----4--4--4-----4--6--6-----6--6--6-----6-------------------------|
C#|----------------------------6--6-----6--6--6-----6-------------------------|
       *  *     *  *  *     *  *  *     *  *  *     *

D#|---------------------------------------------------------------------------|
A#|---------------------------------------------------------------------------|
F#|---------------------------------------------------------------------------|
C#|---------------------------------------------------------------------------|
G#|----4-----4--4-----4--6-----6--6-----6-------------------------------------|
C#|----4-----4--4-----4--6-----6--6-----6-------------------------------------|


0:17 - Lead
D#|---------------------------------------------------------------------------|
A#|---------------------------------------------------------------------------|
F#|----6--6--6--6--6--6--6--6--6--6--6--6--6--6--6--6-------------------------|
C#|----x--x--x--x--x--x--x--x--x--x--x--x--x--x--x--x-------------------------|  x2
G#|----4--4--4--4--4--4--4--4--4--4--4--4--4--4--4--4-------------------------|
C#|---------------------------------------------------------------------------|

D#|---------------------------------------------------------------------------|
A#|---------------------------------------------------------------------------|
F#|----6--6--6--6--6--6--6--6--10-10-10-10-10-10-10-10------------------------|
C#|----x--x--x--x--x--x--x--x--x--x--x--x--x--x--x--x-------------------------|
G#|----4--4--4--4--4--4--4--4--8--8--8--8--8--8--8--8-------------------------|
C#|---------------------------------------------------------------------------|

D#|---------------------------------------------------------------------------|
A#|---------------------------------------------------------------------------|
F#|----13----13-13----13-13----13-13----13-8-/10\8-\6-------------------------|
C#|----x-----x--x-----x--x-----x--x-----x--x--x--x--x-------------------------|
G#|----11----11-11----11-11----11-11----11-6-/8-\6-\4-------------------------|
C#|---------------------------------------------------------------------------|






[Chorus]
0:29 - Rhythm
D#|---------------------------------------------------------------------------|
A#|---------------------------------------------------------------------------|
F#|----6-----6--6-----6--6--6-------------------------------------------------|
C#|----6-----6--6-----6--6--6--6-----6--6-----6--6--6-------------------------|
G#|----4-----4--4-----4--4--4--6-----6--6-----6--6--6-------------------------|
C#|----------------------------6-----6--6-----6--6--6-------------------------|

D#|---------------------------------------------------------------------------|
A#|---------------------------------------------------------------------------|
F#|----6-----6--6-----6--6--6--11----11----11----11---------------------------|
C#|----6-----6--6-----6--6--6--11----11----11----11---------------------------|
G#|----4-----4--4-----4--4--4--9-----9-----9-----9----------------------------|
C#|---------------------------------------------------------------------------|

D#|---------------------------------------------------------------------------|
A#|---------------------------------------------------------------------------|
F#|----6-----6--6-----6--6--6-------------------------------------------------|
C#|----6-----6--6-----6--6--6--6-----6--6-----6--6--6-------------------------|
G#|----4-----4--4-----4--4--4--6-----6--6-----6--6--6-------------------------|
C#|----------------------------6-----6--6-----6--6--6-------------------------|

D#|---------------------------------------------------------------------------|
A#|---------------------------------------------------------------------------|
F#|---------------------------------------------------------------------------|
C#|----4--4-----4--------4--4-----4-----7--7--6--6--4-------------------------|
G#|----4--4-----4--------4--4-----4-----7--7--6--6--4-------------------------|
C#|----4--4-----4--------4--4-----4-----7--7--6--6--4-------------------------|


D#|---------------------------------------------------------------------------|
A#|---------------------------------------------------------------------------|
F#|----6-----6--6-----6--6--6-------------------------------------------------|
C#|----6-----6--6-----6--6--6--6-----6--6-----6--6--6-------------------------|
G#|----4-----4--4-----4--4--4--6-----6--6-----6--6--6-------------------------|
C#|----------------------------6-----6--6-----6--6--6-------------------------|

D#|---------------------------------------------------------------------------|
A#|---------------------------------------------------------------------------|
F#|----6-----6--6-----6--6--6-------------------------------------------------|
C#|----6-----6--6-----6--6--6--4-----4-----4-----4----------------------------|
G#|----4-----4--4-----4--4--4--4-----4-----4-----4----------------------------|
C#|----------------------------4-----4-----4-----4----------------------------|

D#|---------------------------------------------------------------------------|
A#|---------------------------------------------------------------------------|
F#|----6-----6--6-----6--6--6-------------------------------------------------|
C#|----6-----6--6-----6--6--6--6-----6--6-----6--6--6-------------------------|
G#|----4-----4--4-----4--4--4--6-----6--6-----6--6--6-------------------------|
C#|----------------------------6-----6--6-----6--6--6-------------------------|

D#|---------------------------------------------------------------------------|
A#|---------------------------------------------------------------------------|
F#|---------------------------------------------------------------------------|
C#|----4--4-----4--------4--4-----4-----7--7--6--6--4-------------------------|
G#|----4--4-----4--------4--4-----4-----7--7--6--6--4-------------------------|
C#|----4--4-----4--------4--4-----4-----7--7--6--6--4-------------------------| 


0:29 - Lead
D#|---------------------------------------------------------------------------|
A#|---------------------------------------------------------------------------|
F#|----6-----6--6-----6--6--6--8-----8--8-----8--8--8-------------------------|
C#|----x-----x--x-----x--x--x--x-----x--x-----x--x--x-------------------------|
G#|----4-----4--4-----4--4--4--6-----6--6-----6--6--6-------------------------|
C#|---------------------------------------------------------------------------|

D#|---------------------------------------------------------------------------|
A#|---------------------------------------------------------------------------|
F#|----6-----6--6-----6--6--6--11----10----11----8----------------------------|
C#|----x-----x--x-----x--x--x--x-----x-----x-----x----------------------------|
G#|----4-----4--4-----4--4--4--9-----8-----9-----6----------------------------|
C#|---------------------------------------------------------------------------|

D#|---------------------------------------------------------------------------|
A#|---------------------------------------------------------------------------|
F#|----6-----6--6-----6--6--6--10----10-10----10-10-10------------------------|
C#|----x-----x--x-----x--x--x--x-----x--x-----x--x--x-------------------------|
G#|----4-----4--4-----4--4--4--8-----8--8-----8--8--8-------------------------|
C#|---------------------------------------------------------------------------|

D#|---------------------------------------------------------------------------|
A#|---------------------------------------------------------------------------|
F#|----13-13----13-------13-13----10----11-11-8--8--6-------------------------|
C#|----x--x-----x--------x--x-----x-----x--x--x--x--x-------------------------|
G#|----11-11----11-------11-11----8-----9--9--6--6--4-------------------------|
C#|---------------------------------------------------------------------------|


D#|---------------------------------------------------------------------------|
A#|---------------------------------------------------------------------------|
F#|----6-----6--6-----6--6--6--8-----8--8-----8--8--8-------------------------|
C#|----x-----x--x-----x--x--x--x-----x--x-----x--x--x-------------------------|
G#|----4-----4--4-----4--4--4--6-----6--6-----6--6--6-------------------------|
C#|---------------------------------------------------------------------------|

D#|---------------------------------------------------------------------------|
A#|---------------------------------------------------------------------------|
F#|----6-----6--6-----6--6--6--6-----8-----11----10---------------------------|
C#|----x-----x--x-----x--x--x--x-----x-----x-----x----------------------------|
G#|----4-----4--4-----4--4--4--4-----6-----9-----8----------------------------|
C#|---------------------------------------------------------------------------|

D#|---------------------------------------------------------------------------|
A#|---------------------------------------------------------------------------|
F#|----6-----6--6-----6--6--6--10----10-10----10-10-10------------------------|
C#|----x-----x--x-----x--x--x--x-----x--x-----x--x--x-------------------------|
G#|----4-----4--4-----4--4--4--8-----8--8-----8--8--8-------------------------|
C#|---------------------------------------------------------------------------|

D#|---------------------------------------------------------------------------|
A#|---------------------------------------------------------------------------|
F#|----13-13----13-------13-13----10----11-11-8--8--6-------------------------|
C#|----x--x-----x--------x--x-----x-----x--x--x--x--x-------------------------|
G#|----11-11----11-------11-11----8-----9--9--6--6--4-------------------------|
C#|---------------------------------------------------------------------------|

D#|---------------------------------------------------------------------------|
A#|---------------------------------------------------------------------------|
F#|----6--6--6--6--6--6--6--6--6--6--6--6--6--6-------------------------------|
C#|----x--x--x--x--x--x--x--x--x--x--x--x--x--x-------------------------------|  
G#|----4--4--4--4--4--4--4--4--4--4--4--4--4--4-------------------------------|
C#|---------------------------------------------------------------------------|





[Verse]
0:56 - Rhythm
D#|---------------------------------------------------------------------------|
A#|---------------------------------------------------------------------------|
F#|---------------------------------------------------------------------------|
C#|----6--6-----6--6--6-------------------------------------------------------|
G#|----4--4-----4--4--4-----6-----6-----6--6--6-----6-------------------------|
C#|-------------------------6-----6-----6--6--6-----6-------------------------|
       *  *     *  *  *     *     *     *  *  *     *

D#|---------------------------------------------------------------------------|
A#|---------------------------------------------------------------------------|
F#|---------------------------------------------------------------------------|
C#|---------------------------------------------------------------------------|
G#|----4--4-----4--4--4-----4-----4-----4--4--4--4----------------------------|
C#|----4--4-----4--4--4-----4-----4-----4--4--4--4----------------------------|
       *  *     *  *  *     *     *     *  *  *  *

D#|---------------------------------------------------------------------------|
A#|---------------------------------------------------------------------------|
F#|---------------------------------------------------------------------------|
C#|----6--6-----6--6--6-------------------------------------------------------|
G#|----4--4-----4--4--4-----6-----6-----6--6--6-----6-------------------------|
C#|-------------------------6-----6-----6--6--6-----6-------------------------|
       *  *     *  *  *     *     *     *  *  *     *

D#|---------------------------------------------------------------------------|
A#|---------------------------------------------------------------------------|
F#|---------------------------------------------------------------------------|
C#|-------------------------------7--7--7-----6--6----------------------------|
G#|----4--4-----4--4--4-----4-----7--7--7-----6--6----------------------------|
C#|----4--4-----4--4--4-----4-----7--7--7-----6--6----------------------------|
       *  *     *  *  *     *     


0:56 - Lead
D#|---------------------------------------------------------------------------|
A#|---------------------------------------------------------------------------|
F#|----6--6--6--6--6--6--6--6--6--6--6--6--6--6--6--6-------------------------|
C#|----x--x--x--x--x--x--x--x--x--x--x--x--x--x--x--x-------------------------|  x3
G#|----4--4--4--4--4--4--4--4--4--4--4--4--4--4--4--4-------------------------|
C#|---------------------------------------------------------------------------|

D#|---------------------------------------------------------------------------|
A#|---------------------------------------------------------------------------|
F#|----6--6--6--6--6--6--6--6-----11-11-11----10-10---------------------------|
C#|----x--x--x--x--x--x--x--x-----x--x--x-----x--x----------------------------|
G#|----4--4--4--4--4--4--4--4-----9--9--9-----8--8----------------------------|
C#|---------------------------------------------------------------------------|





[Pre Chorus]
1:08 - Rhythm
D#|---------------------------------------------------------------------------|
A#|---------------------------------------------------------------------------|
F#|---------------------------------------------------------------------------|
C#|----6--6-----6--6----------------------------------------------------------|
G#|----4--4-----4--4-----------6--6--------6--6-------------------------------|
C#|----------------------------6--6--------6--6-------------------------------|
       *  *     *  *           *  *        *  *

D#|---------------------------------------------------------------------------|
A#|---------------------------------------------------------------------------|
F#|---------------------------------------------------------------------------|
C#|---------------------------------------------------------------------------|
G#|----4--4-----4--4-----------4--4--------4--4-------------------------------|
C#|----4--4-----4--4-----------4--4--------4--4-------------------------------|
       *  *     *  *           *  *        *  *

D#|---------------------------------------------------------------------------|
A#|---------------------------------------------------------------------------|
F#|---------------------------------------------------------------------------|
C#|----6--6-----6--6----------------------------------------------------------|
G#|----4--4-----4--4-----------6--6--------6--6--6--4-------------------------|
C#|----------------------------6--6--------6--6--6--4-------------------------|
       *  *     *  *           *  *        *  *

D#|---------------------------------------------------------------------------|
A#|---------------------------------------------------------------------------|
F#|---------------------------------------------------------------------------|
C#|---------------------------------------------------------------------------|
G#|----4-----4--4-----4--6-----6--6-----6-------------------------------------|
C#|----4-----4--4-----4--6-----6--6-----6-------------------------------------|


1:08 - Lead
D#|---------------------------------------------------------------------------|
A#|---------------------------------------------------------------------------|
F#|----------6--6--------6-----------6--6--------6--6-------------------------|
C#|----6--6--------------------6--6--------6--6-------------------------------|
G#|---------------------------------------------------------------------------|
C#|---------------------------------------------------------------------------|
       *  *                    *  *        *  *

D#|---------------------------------------------------------------------------|
A#|---------------------------------------------------------------------------|
F#|----------6--6--------6--------6-/5----------------------------------------|
C#|----6--6--------------------6--------6-/8-\6-------------------------------|
G#|----------------------------------------------6-/8-------------------------|
C#|---------------------------------------------------------------------------|
       *  *

D#|---------------------------------------------------------------------------|
A#|---------------------------------------------------------------------------|
F#|----------6--6--------6-----------6--6--------6--6-------------------------|
C#|----6--6--------------------6--6--------6--6-------------------------------|
G#|---------------------------------------------------------------------------|
C#|---------------------------------------------------------------------------|
       *  *                    *  *        *  *

D#|---------------------------------------------------------------------------|
A#|---------------------------------------------------------------------------|
F#|----10----10-10----10-13----13-13----13-8-/10\8-\6-------------------------|
C#|----x-----x--x-----x--x-----x--x-----x--x--x--x--x-------------------------|
G#|----8-----8--8-----8--11----11-11----11-6-/8-\6-\4-------------------------|
C#|---------------------------------------------------------------------------|






[Chorus]
1:20 - Rhythm
D#|---------------------------------------------------------------------------|
A#|---------------------------------------------------------------------------|
F#|----6-----6--6-----6--6--6-------------------------------------------------|
C#|----6-----6--6-----6--6--6--6-----6--6-----6--6--6-------------------------|
G#|----4-----4--4-----4--4--4--6-----6--6-----6--6--6-------------------------|
C#|----------------------------6-----6--6-----6--6--6-------------------------|

D#|---------------------------------------------------------------------------|
A#|---------------------------------------------------------------------------|
F#|----6-----6--6-----6--6--6--11----11----11----11---------------------------|
C#|----6-----6--6-----6--6--6--11----11----11----11---------------------------|
G#|----4-----4--4-----4--4--4--9-----9-----9-----9----------------------------|
C#|---------------------------------------------------------------------------|

D#|---------------------------------------------------------------------------|
A#|---------------------------------------------------------------------------|
F#|----6-----6--6-----6--6--6-------------------------------------------------|
C#|----6-----6--6-----6--6--6--6-----6--6-----6--6--6-------------------------|
G#|----4-----4--4-----4--4--4--6-----6--6-----6--6--6-------------------------|
C#|----------------------------6-----6--6-----6--6--6-------------------------|

D#|---------------------------------------------------------------------------|
A#|---------------------------------------------------------------------------|
F#|---------------------------------------------------------------------------|
C#|----4--4-----4--------4--4-----4-----7--7--6--6--4-------------------------|
G#|----4--4-----4--------4--4-----4-----7--7--6--6--4-------------------------|
C#|----4--4-----4--------4--4-----4-----7--7--6--6--4-------------------------|


D#|---------------------------------------------------------------------------|
A#|---------------------------------------------------------------------------|
F#|----6-----6--6-----6--6--6-------------------------------------------------|
C#|----6-----6--6-----6--6--6--6-----6--6-----6--6--6-------------------------|
G#|----4-----4--4-----4--4--4--6-----6--6-----6--6--6-------------------------|
C#|----------------------------6-----6--6-----6--6--6-------------------------|

D#|---------------------------------------------------------------------------|
A#|---------------------------------------------------------------------------|
F#|----6-----6--6-----6--6--6-------------------------------------------------|
C#|----6-----6--6-----6--6--6--4-----4-----4-----4----------------------------|
G#|----4-----4--4-----4--4--4--4-----4-----4-----4----------------------------|
C#|----------------------------4-----4-----4-----4----------------------------|

D#|---------------------------------------------------------------------------|
A#|---------------------------------------------------------------------------|
F#|----6-----6--6-----6--6--6-------------------------------------------------|
C#|----6-----6--6-----6--6--6--6-----6--6-----6--6--6-------------------------|
G#|----4-----4--4-----4--4--4--6-----6--6-----6--6--6-------------------------|
C#|----------------------------6-----6--6-----6--6--6-------------------------|

D#|---------------------------------------------------------------------------|
A#|---------------------------------------------------------------------------|
F#|---------------------------------------------------------------------------|
C#|----4--4-----4--------4--4-----4-----7--7--6--6--4-------------------------|
G#|----4--4-----4--------4--4-----4-----7--7--6--6--4-------------------------|
C#|----4--4-----4--------4--4-----4-----7--7--6--6--4-------------------------| 

D#|---------------------------------------------------------------------------|
A#|---------------------------------------------------------------------------|
F#|---------------------------------------------------------------------------|
C#|----6----------------------------------------------------------------------|
G#|----6-----6--6--6--6--6--6--6--6--6--6--6----------------------------------|
C#|----6-----6--6--6--6--6--6--6--6--6--6--6----------------------------------|
             *  *  *  *  *  *

1:20 - Lead
D#|---------------------------------------------------------------------------|
A#|---------------------------------------------------------------------------|
F#|----6-----6--6-----6--6--6--8-----8--8-----8--8--8-------------------------|
C#|----x-----x--x-----x--x--x--x-----x--x-----x--x--x-------------------------|
G#|----4-----4--4-----4--4--4--6-----6--6-----6--6--6-------------------------|
C#|---------------------------------------------------------------------------|

D#|---------------------------------------------------------------------------|
A#|---------------------------------------------------------------------------|
F#|----6-----6--6-----6--6--6--11----10----11----8----------------------------|
C#|----x-----x--x-----x--x--x--x-----x-----x-----x----------------------------|
G#|----4-----4--4-----4--4--4--9-----8-----9-----6----------------------------|
C#|---------------------------------------------------------------------------|

D#|---------------------------------------------------------------------------|
A#|---------------------------------------------------------------------------|
F#|----6-----6--6-----6--6--6--10----10-10----10-10-10------------------------|
C#|----x-----x--x-----x--x--x--x-----x--x-----x--x--x-------------------------|
G#|----4-----4--4-----4--4--4--8-----8--8-----8--8--8-------------------------|
C#|---------------------------------------------------------------------------|

D#|---------------------------------------------------------------------------|
A#|---------------------------------------------------------------------------|
F#|----13-13----13-------13-13----10----11-11-8--8--6-------------------------|
C#|----x--x-----x--------x--x-----x-----x--x--x--x--x-------------------------|
G#|----11-11----11-------11-11----8-----9--9--6--6--4-------------------------|
C#|---------------------------------------------------------------------------|


D#|---------------------------------------------------------------------------|
A#|---------------------------------------------------------------------------|
F#|----6-----6--6-----6--6--6--8-----8--8-----8--8--8-------------------------|
C#|----x-----x--x-----x--x--x--x-----x--x-----x--x--x-------------------------|
G#|----4-----4--4-----4--4--4--6-----6--6-----6--6--6-------------------------|
C#|---------------------------------------------------------------------------|

D#|---------------------------------------------------------------------------|
A#|---------------------------------------------------------------------------|
F#|----6-----6--6-----6--6--6--6-----8-----11----10---------------------------|
C#|----x-----x--x-----x--x--x--x-----x-----x-----x----------------------------|
G#|----4-----4--4-----4--4--4--4-----6-----9-----8----------------------------|
C#|---------------------------------------------------------------------------|

D#|---------------------------------------------------------------------------|
A#|---------------------------------------------------------------------------|
F#|----6-----6--6-----6--6--6--10----10-10----10-10-10------------------------|
C#|----x-----x--x-----x--x--x--x-----x--x-----x--x--x-------------------------|
G#|----4-----4--4-----4--4--4--8-----8--8-----8--8--8-------------------------|
C#|---------------------------------------------------------------------------|

D#|---------------------------------------------------------------------------|
A#|---------------------------------------------------------------------------|
F#|----13-13----13-------13-13----10----11-11-8--8--6-------------------------|
C#|----x--x-----x--------x--x-----x-----x--x--x--x--x-------------------------|
G#|----11-11----11-------11-11----8-----9--9--6--6--4-------------------------|
C#|---------------------------------------------------------------------------|

D#|---------------------------------------------------------------------------|
A#|---------------------------------------------------------------------------|
F#|----8-----8--8--8--8--8--8--8--8--8--8--8----------------------------------|
C#|----x-----x--x--x--x--x--x--x--x--x--x--x----------------------------------|
G#|----6-----6--6--6--6--6--6--6--6--6--6--6----------------------------------|
C#|---------------------------------------------------------------------------|
             *  *




[Bridge]
1:46 - Rhythm
D#|---------------------------------------------------------------------------|
A#|---------------------------------------------------------------------------|
F#|--4----4--4-----4--4--4--------------------------6-------------------------|
C#|--4----4--4-----4--4--4--4-----4--4-----4--4--4--6-------------------------|
G#|--2----2--2-----2--2--2--4-----4--4-----4--4--4--4-------------------------|
C#|-------------------------4-----4--4-----4--4--4----------------------------|

D#|---------------------------------------------------------------------------|
A#|---------------------------------------------------------------------------|
F#|-------6--6-----6--6--6-----6--6--6-----6--6--6--4-------------------------|
C#|-------6--6-----6--6--6-----6--6--6-----6--6--6--4-------------------------|
G#|-------4--4-----4--4--4-----4--4--4-----4--4--4--2-------------------------|
C#|---------------------------------------------------------------------------|

D#|---------------------------------------------------------------------------|
A#|---------------------------------------------------------------------------|
F#|-------4--4-----4--4--4--------------------------6-------------------------|
C#|-------4--4-----4--4--4--4-----4--4-----4--4--4--6-------------------------|
G#|-------2--2-----2--2--2--4-----4--4-----4--4--4--4-------------------------|
C#|-------------------------4-----4--4-----4--4--4----------------------------|

D#|---------------------------------------------------------------------------|
A#|---------------------------------------------------------------------------|
F#|-------6--6-----6--6--6-----6--6--6-----6--6--6--6-------------------------|
C#|-------6--6-----6--6--6-----6--6--6-----6--6--6--6-------------------------|
G#|-------4--4-----4--4--4-----4--4--4-----4--4--4--4-------------------------|
C#|---------------------------------------------------------------------------|





[Solo]
1:56 - Lead
D#|---------------------------------------------------------------------------|
A#|---------------------------------------------------------------------------|
F#|----------------------------------------6-----6--8-------------------------|
C#|----------------------------------6--8-----8-------------------------------|
G#|----------------------------6--8-------------------------------------------|
C#|---------------------------------------------------------------------------|
                               *  *  *  *     *

D#|---------------------------------------------------------------------------|
A#|---------------------------------------------------------------------------|
F#|----8b--------8b------6~-------6~-------6-6------6-------------------------|
C#|-------------------------------------------8--6----------------------------|
G#|---------------------------------------------------------------------------|
C#|---------------------------------------------------------------------------|
                                           * *

D#|---------------------------------------------------------------------------|
A#|-------6--6-----6--6--6--6-----6--6-----6--6--6--6-------------------------|
F#|-------6--6-----6--6--6--6-----6--6-----6--6--6--6-------------------------|
C#|-------6--6-----6--6--6--6-----6--6-----6--6--6--6-------------------------|
G#|---------------------------------------------------------------------------|
C#|---------------------------------------------------------------------------|

D#|---------------------------------------------------------------------------|
A#|----5b-------5br------6--------6--6--6--6--6--6--6-------------------------|
F#|----------------------6--------6--6--6--6--6--6--6-------------------------|
C#|---------------------------------------------------------------------------|
G#|---------------------------------------------------------------------------|
C#|---------------------------------------------------------------------------|


1:56 - Rhythm
D#|---------------------------------------------------------------------------|
A#|---------------------------------------------------------------------------|
F#|----4--------4-------------------------------------------------------------|
C#|----4--------4--------4--------4--------4--4--4--4-------------------------|
G#|----2--------2--------4--------4--------4--4--4--4-------------------------|
C#|----------------------4--------4--------4--4--4--4-------------------------|

D#|---------------------------------------------------------------------------|
A#|---------------------------------------------------------------------------|
F#|-------6--6-----6--6--6--6-----6--6-----6--6--6--6-------------------------|
C#|-------6--6-----6--6--6--6-----6--6-----6--6--6--6-------------------------|
G#|-------4--4-----4--4--4--4-----4--4-----4--4--4--4-------------------------|
C#|---------------------------------------------------------------------------|

D#|---------------------------------------------------------------------------|
A#|---------------------------------------------------------------------------|
F#|----4--------4-------------------------------------------------------------|
C#|----4--------4--------4----------------------------------------------------|
G#|----2--------2--------4--------4--4--4--4--4--4--4-------------------------|
C#|----------------------4--------4--4--4--4--4--4--4-------------------------|
                                  *  *  *  *




[Pre Chorus]
2:07 - Lead
D#|---------------------------------------------------------------------------|
A#|---------------------------------------------------------------------------|
F#|----6--6--6--6--6--6--6--6--6--6--6--6--6--6--6--6-------------------------|
C#|----x--x--x--x--x--x--x--x--x--x--x--x--x--x--x--x-------------------------|  x4
G#|----4--4--4--4--4--4--4--4--4--4--4--4--4--4--4--4-------------------------|
C#|---------------------------------------------------------------------------|

D#|---------------------------------------------------------------------------|
A#|---------------------------------------------------------------------------|
F#|----6--6--6--6--6--6--6--6-------------------------------------------------|
C#|----x--x--x--x--x--x--x--x-------------------------------------------------|  
G#|----4--4--4--4--4--4--4--4-------------------------------------------------|
C#|---------------------------------------------------------------------------|


2:10 - Rhythm
D#|---------------------------------------------------------------------------|
A#|---------------------------------------------------------------------------|
F#|---------------------------------------------------------------------------|
C#|----6--6-----6--6--6-----6-------------------------------------------------|
G#|----4--4-----4--4--4-----4--6--6-----6--6--6-----6-------------------------|
C#|----------------------------6--6-----6--6--6-----6-------------------------|
       *  *     *  *  *     *  *  *     *  *  *     *

D#|---------------------------------------------------------------------------|
A#|---------------------------------------------------------------------------|
F#|---------------------------------------------------------------------------|
C#|---------------------------------------------------------------------------|
G#|----4--4-----4--4--4-----4--4--4-----4--4--4-----4-------------------------|
C#|----4--4-----4--4--4-----4--4--4-----4--4--4-----4-------------------------|
       *  *     *  *  *     *  *  *     *  *  *     *

D#|---------------------------------------------------------------------------|
A#|---------------------------------------------------------------------------|
F#|---------------------------------------------------------------------------|
C#|----6--6-----6--6--6-----6-------------------------------------------------|
G#|----4--4-----4--4--4-----4--6--6-----6--6--6-----6-------------------------|
C#|----------------------------6--6-----6--6--6-----6-------------------------|
       *  *     *  *  *     *  *  *     *  *  *     *

D#|---------------------------------------------------------------------------|
A#|---------------------------------------------------------------------------|
F#|----------------------------------------x--x--x--x-------------------------|
C#|----------------------------------------x--x--x--x-------------------------|
G#|----4--4-----4--4--4-----4--------------x--x--x--x-------------------------|
C#|----4--4-----4--4--4-----4-------------------------------------------------|
       *  *     *  *  *     *  




[Chorus]
2:22 - Rhythm
D#|---------------------------------------------------------------------------|
A#|---------------------------------------------------------------------------|
F#|----6-----6--6-----6--6--6-------------------------------------------------|
C#|----6-----6--6-----6--6--6--6-----6--6-----6--6--6-------------------------|
G#|----4-----4--4-----4--4--4--6-----6--6-----6--6--6-------------------------|
C#|----------------------------6-----6--6-----6--6--6-------------------------|

D#|---------------------------------------------------------------------------|
A#|---------------------------------------------------------------------------|
F#|----6-----6--6-----6--6--6--11----11----11----11---------------------------|
C#|----6-----6--6-----6--6--6--11----11----11----11---------------------------|
G#|----4-----4--4-----4--4--4--9-----9-----9-----9----------------------------|
C#|---------------------------------------------------------------------------|

D#|---------------------------------------------------------------------------|
A#|---------------------------------------------------------------------------|
F#|----6-----6--6-----6--6--6-------------------------------------------------|
C#|----6-----6--6-----6--6--6--6-----6--6-----6--6--6-------------------------|
G#|----4-----4--4-----4--4--4--6-----6--6-----6--6--6-------------------------|
C#|----------------------------6-----6--6-----6--6--6-------------------------|

D#|---------------------------------------------------------------------------|
A#|---------------------------------------------------------------------------|
F#|---------------------------------------------------------------------------|
C#|----4--4-----4--------4--4-----4-----7--7--6--6--4-------------------------|
G#|----4--4-----4--------4--4-----4-----7--7--6--6--4-------------------------|
C#|----4--4-----4--------4--4-----4-----7--7--6--6--4-------------------------|


D#|---------------------------------------------------------------------------|
A#|---------------------------------------------------------------------------|
F#|----6-----6--6-----6--6--6-------------------------------------------------|
C#|----6-----6--6-----6--6--6--6-----6--6-----6--6--6-------------------------|
G#|----4-----4--4-----4--4--4--6-----6--6-----6--6--6-------------------------|
C#|----------------------------6-----6--6-----6--6--6-------------------------|

D#|---------------------------------------------------------------------------|
A#|---------------------------------------------------------------------------|
F#|---------------------------------------------------------------------------|
C#|----8-----8--8-----8--8--8--4-----4-----4-----6----------------------------|
G#|----8-----8--8-----8--8--8--4-----4-----4-----6----------------------------|
C#|----8-----8--8-----8--8--8--4-----4-----4-----6----------------------------|

D#|---------------------------------------------------------------------------|
A#|---------------------------------------------------------------------------|
F#|----6-----6--6-----6--6--6-------------------------------------------------|
C#|----6-----6--6-----6--6--6--6-----6--6-----6--6--6-------------------------|
G#|----4-----4--4-----4--4--4--6-----6--6-----6--6--6-------------------------|
C#|----------------------------6-----6--6-----6--6--6-------------------------|

D#|---------------------------------------------------------------------------|
A#|---------------------------------------------------------------------------|
F#|---------------------------------------------------------------------------|
C#|----4--4-----4--------4--4-----7--7--7-----6--6----------------------------|
G#|----4--4-----4--------4--4-----7--7--7-----6--6----------------------------|
C#|----4--4-----4--------4--4-----7--7--7-----6--6----------------------------| 


2:22 - Lead
D#|---------------------------------------------------------------------------|
A#|---------------------------------------------------------------------------|
F#|----6-----6--6-----6--6--6--8-----8--8-----8--8--8-------------------------|
C#|----x-----x--x-----x--x--x--x-----x--x-----x--x--x-------------------------|
G#|----4-----4--4-----4--4--4--6-----6--6-----6--6--6-------------------------|
C#|---------------------------------------------------------------------------|

D#|---------------------------------------------------------------------------|
A#|---------------------------------------------------------------------------|
F#|----6-----6--6-----6--6--6--11----10----11----8----------------------------|
C#|----x-----x--x-----x--x--x--x-----x-----x-----x----------------------------|
G#|----4-----4--4-----4--4--4--9-----8-----9-----6----------------------------|
C#|---------------------------------------------------------------------------|

D#|---------------------------------------------------------------------------|
A#|---------------------------------------------------------------------------|
F#|----6-----6--6-----6--6--6--10----10-10----10-10-10------------------------|
C#|----x-----x--x-----x--x--x--x-----x--x-----x--x--x-------------------------|
G#|----4-----4--4-----4--4--4--8-----8--8-----8--8--8-------------------------|
C#|---------------------------------------------------------------------------|

D#|---------------------------------------------------------------------------|
A#|---------------------------------------------------------------------------|
F#|----13-13----13-------13-13----10----11-11-8--8--6-------------------------|
C#|----x--x-----x--------x--x-----x-----x--x--x--x--x-------------------------|
G#|----11-11----11-------11-11----8-----9--9--6--6--4-------------------------|
C#|---------------------------------------------------------------------------|


D#|---------------------------------------------------------------------------|
A#|---------------------------------------------------------------------------|
F#|----6-----6--6-----6--6--6--8-----8--8-----8--8--8-------------------------|
C#|----x-----x--x-----x--x--x--x-----x--x-----x--x--x-------------------------|
G#|----4-----4--4-----4--4--4--6-----6--6-----6--6--6-------------------------|
C#|---------------------------------------------------------------------------|

D#|---------------------------------------------------------------------------|
A#|---------------------------------------------------------------------------|
F#|----6-----6--6-----6--6--6--11----10----11----8----------------------------|
C#|----x-----x--x-----x--x--x--x-----x-----x-----x----------------------------|
G#|----4-----4--4-----4--4--4--9-----8-----9-----6----------------------------|
C#|---------------------------------------------------------------------------|

D#|---------------------------------------------------------------------------|
A#|---------------------------------------------------------------------------|
F#|----6-----6--6-----6--6--6--10----10-10----10-10-10------------------------|
C#|----x-----x--x-----x--x--x--x-----x--x-----x--x--x-------------------------|
G#|----4-----4--4-----4--4--4--8-----8--8-----8--8--8-------------------------|
C#|---------------------------------------------------------------------------|

D#|---------------------------------------------------------------------------|
A#|---------------------------------------------------------------------------|
F#|----13-13----13-------13-13----11-11-11----10-10---------------------------|
C#|----x--x-----x--------x--x-----x--x--x-----x--x----------------------------|
G#|----11-11----11-------11-11----9--9--9-----8--8----------------------------|
C#|---------------------------------------------------------------------------|





************************************

| *   Palm mute
| x   Dead note
| g   Grace note
| (n) Ghost note
| h   Hammer-on
| p   Pull-off
| r   Release
| >   Accented note
| t   Tapping
| b   Bend
| br  Bend release
| pb  Pre-bend
| pbr Pre-bend release
| /   Slide up
| \   Slide down
| ~   Vibrato
| s   Slap
| P   Pop
| TR  Trill
| N   Tremolo

************************************

            
            
Suggest correction
Creating personal tab
Creating personal tab
You can edit any tab online and save it as your Personal.

You can edit, replace or remove any tab part or add personal notes – all changes will be seen only by you.

Personal tabs can be accessed anytime from any device, even offline.
Learn more »
Give kudos to tab author, rate the tab!
1 2 3 4 5
comments
print report bad tab
1 comment total.
0 reply
cocopunk1486 578 Jul 07, 2016 03:49 PM

Great job!

guest
You may want to rate the tab now too:
select rating
Wanna post a correction for this tab? Suggest correction