Oops, an error
Loading. Please wait.

Losing Myself tab

version 1
version 1

Whole song

Interactive

3,943 views 45 this week
1 commentread comment
1 2 3 4 5
x 3
add to favorites
×
Save as Personal and add changes to this tab that will be seen only by you. Learn more ›
×
You can save this tab as Personal to edit and correct it or add notes. All changes will be seen only by you. Learn more »
launch autoscroll
font size
0
reset
how to read this tab
guitar tuner
edit
Autoscroll
slow
fast
+/-
esc
set tempo
stop
-------------------------------------------------------------------------------
                           State Champs - Losing Myself
-------------------------------------------------------------------------------
Tabbed by: scottismad
E-mail: scott.simpson@hotmail.com.au

Tuning: Drop C#


Intro: 0:03
D#|---------------------------------------------------------------------------|
A#|----12---12-12--12-12--------12-12--12-12-12-12----------------------------|
F#|----11---11-11--11-11--------11-11--11-11-11-11----------------------------|
C#|----9----9--9---9--9---------9--9---9--9--9--9-----------------------------|  x4
G#|---------------------------------------------------------------------------|
C#|---------------------------------------------------------------------------|




0:10 - Rhythm L
D#|---------------------------------------------------------------------------|
A#|---------------------------------------------------------------------------|
F#|----11---11-11---11-11-------11-11---11-11-11-11---------------------------|
C#|----x----x--x----x--x--------x--x----x--x--x--x----------------------------|
G#|----9----9--9----9--9--------9--9----9--9--9--9----------------------------|
C#|---------------------------------------------------------------------------|

D#|---------------------------------------------------------------------------|
A#|---------------------------------------------------------------------------|
F#|----6----6--6----6--6--------6--6----6--6--6--6----------------------------|
C#|----x----x--x----x--x--------x--x----x--x--x--x----------------------------|
G#|----4----4--4----4--4--------4--4----4--4--4--4----------------------------|
C#|---------------------------------------------------------------------------|

       Rhythm R
D#|---------------------------------------------------------------------------|
A#|---------------------------------------------------------------------------|
F#|---------------------------------------------------------------------------|
C#|----9----9--9----9--9--------9--9----9--9--9--9----------------------------|
G#|----9----9--9----9--9--------9--9----9--9--9--9----------------------------|
C#|----9----9--9----9--9--------9--9----9--9--9--9----------------------------|

D#|---------------------------------------------------------------------------|
A#|---------------------------------------------------------------------------|
F#|---------------------------------------------------------------------------|
C#|----4----4--4----4--4--------4--4----4--4--4--4----------------------------|
G#|----4----4--4----4--4--------4--4----4--4--4--4----------------------------|
C#|----4----4--4----4--4--------4--4----4--4--4--4----------------------------|


       Rhythm
D#|---------------------------------------------------------------------------|
A#|---------------------------------------------------------------------------|
F#|---------------------------------------------------------------------------|
C#|---------------------------------------------------------------------------|  x2
G#|----2--2-------------------2--2-----2--2-----------------------------------|
C#|----2--2-------------------2--2-----2--2-----------------------------------|
       *  *                   *  *     *  *

       Lead
D#|---------------------------------------------------------------------------|
A#|----12---12-12--12-12--------12-12--12-12-12-12----------------------------|
F#|----11---11-11--11-11--------11-11--11-11-11-11----------------------------|
C#|----9----9--9---9--9---------9--9---9--9--9--9-----------------------------|  x2
G#|---------------------------------------------------------------------------|
C#|---------------------------------------------------------------------------|


       Rhythm L
D#|---------------------------------------------------------------------------|
A#|---------------------------------------------------------------------------|
F#|----11---11-11---11-11-------11-11---11-11-11-11---------------------------|
C#|----x----x--x----x--x--------x--x----x--x--x--x----------------------------|
G#|----9----9--9----9--9--------9--9----9--9--9--9----------------------------|
C#|---------------------------------------------------------------------------|

D#|---------------------------------------------------------------------------|
A#|---------------------------------------------------------------------------|
F#|----6----6--6----6--6--------6--6----6--6--6--6----------------------------|
C#|----x----x--x----x--x--------x--x----x--x--x--x----------------------------|
G#|----4----4--4----4--4--------4--4----4--4--4--4----------------------------|
C#|---------------------------------------------------------------------------|

       Rhythm R
D#|---------------------------------------------------------------------------|
A#|---------------------------------------------------------------------------|
F#|---------------------------------------------------------------------------|
C#|----9----9--9----9--9--------9--9----9--9--9--9----------------------------|
G#|----9----9--9----9--9--------9--9----9--9--9--9----------------------------|
C#|----9----9--9----9--9--------9--9----9--9--9--9----------------------------|

D#|---------------------------------------------------------------------------|
A#|---------------------------------------------------------------------------|
F#|---------------------------------------------------------------------------|
C#|----4----4--4----4--4--------4--4----4--4--4--4----------------------------|
G#|----4----4--4----4--4--------4--4----4--4--4--4----------------------------|
C#|----4----4--4----4--4--------4--4----4--4--4--4----------------------------|





Pre Chorus
0:21 - Rhythm
D#|---------------------------------------------------------------------------|
A#|---------------------------------------------------------------------------|
F#|----8----8-----------------------------------------------------------------|
C#|----x----x----------4----4-----------9-------------------------------------|
G#|----6----6----------4----4-----------9-------------------------------------|
C#|--------------------4----4-----------9-------------------------------------|

       Lead
D#|---------------------------------------------------------------------------|
A#|---------------------------------------------------------------------------|
F#|--------------11--------------------11-------------------------------------|
C#|----9----9--------------------9--------------------------------------------|
G#|--------------------9----9-------------------------------------------------|
C#|---------------------------------------------------------------------------|




Chorus
0:25 - Rhythm
D#|---------------------------------------------------------------------------|
A#|---------------------------------------------------------------------------|
F#|-------------------------------------4-------------------------------------|
C#|----2--------2--------2----2----2----4-------------------------------------|
G#|----2--------2--------2----2----2----2-------------------------------------|
C#|----2--------2--------2----2----2------------------------------------------|

D#|---------------------------------------------------------------------------|
A#|---------------------------------------------------------------------------|
F#|--------4----4--------4----4----4------------------------------------------|
C#|--------4----4--------4----4----4------------------------------------------|
G#|--------2----2--------2----2----2----0-------------------------------------|
C#|-------------------------------------0-------------------------------------|
                                        *
D#|---------------------------------------------------------------------------|
A#|---------------------------------------------------------------------------|
F#|---------------------------------------------------------------------------|
C#|----6--------6--------6----9---------4-------------------------------------|
G#|----6--------6--------6----9----0----4-------------------------------------|
C#|----6--------6--------6----9----0----4-------------------------------------|
                                   *
D#|---------------------------------------------------------------------------|
A#|---------------------------------------------------------------------------|
F#|---------------------------------------------------------------------------|   
C#|--------4----4--------4----6----6----6-------------------------------------|  x2
G#|--------4----4--------4----6----6----6-------------------------------------|
C#|--------4----4--------4----6----6----6-------------------------------------|

Lead
D#|---------------------------------------------------------------------------|
A#|--------------------12-----------------------------------------------------|
F#|----9---11---11-------------11---------------------------------------------|
C#|-------------------------------------8-------------------------------------|
G#|---------------------------------------------------------------------------|
C#|---------------------------------------------------------------------------|

D#|---------------------------------------------------------------------------|
A#|---------------------------------------------------------------------------|
F#|-------------------9/11----------------------------------------------------|
C#|--------9----9--------------11---------------------------------------------|
G#|---------------------------------------------------------------------------|
C#|---------------------------------------------------------------------------|

D#|---------------------------------------------------------------------------|
A#|--------------------12-----------------------------------------------------|
F#|----9---11---11-------------11---------------------------------------------|
C#|-------------------------------------8-------------------------------------|
G#|---------------------------------------------------------------------------|
C#|---------------------------------------------------------------------------|

D#|---------------------------------------------------------------------------|
A#|---------------------------------------------------------------------------|
F#|-------------------9/11----------------------------------------------------|
C#|--------9----9-------------11---9----8-------------------------------------|  x2
G#|---------------------------------------------------------------------------|
C#|---------------------------------------------------------------------------|




0:40 - Rhythm
D#|---------------------------------------------------------------------------|
A#|---------------------------------------------------------------------------|
F#|---------------------------------------------------------------------------|
C#|----2----------------------------------------------------------------------|
G#|----2----------------------------------------------------------------------|
C#|----2----------------------------------------------------------------------|

D#|---------------------------------------------------------------------------|
A#|---------------------------------------------------------------------------|
F#|---------------------------------------------------------------------------|
C#|----4----------------------------------------------------------------------|
G#|----4----------------------------------------------------------------------|
C#|----4----------------------------------------------------------------------|

       Lead
D#|---------------------------------------------------------------------------|
A#|---------------------------------------------------------------------------|
F#|---------------------------------------------------------------------------|
C#|----9----------------------------------------------------------------------|
G#|---------------------------------------------------------------------------|
C#|---------------------------------------------------------------------------|

D#|---------------------------------------------------------------------------|
A#|---------------------------------------------------------------------------|
F#|---------------------------------------------------------------------------|
C#|----11---------------------------------------------------------------------|
G#|---------------------------------------------------------------------------|
C#|---------------------------------------------------------------------------|





Intro lead
0:43
D#|---------------------------------------------------------------------------|
A#|----12---12-12--12-12--------12-12--12-12-12-12----------------------------|
F#|----11---11-11--11-11--------11-11--11-11-11-11----------------------------|
C#|----9----9--9---9--9---------9--9---9--9--9--9-----------------------------|  x4
G#|---------------------------------------------------------------------------|
C#|---------------------------------------------------------------------------|


0:50 - Rhythm L
D#|---------------------------------------------------------------------------|
A#|---------------------------------------------------------------------------|
F#|----11---11-11---11-11-------11-11---11-11-11-11---------------------------|
C#|----x----x--x----x--x--------x--x----x--x--x--x----------------------------|
G#|----9----9--9----9--9--------9--9----9--9--9--9----------------------------|
C#|---------------------------------------------------------------------------|

D#|---------------------------------------------------------------------------|
A#|---------------------------------------------------------------------------|
F#|----6----6--6----6--6--------6--6----6--6--6--6----------------------------|
C#|----x----x--x----x--x--------x--x----x--x--x--x----------------------------|
G#|----4----4--4----4--4--------4--4----4--4--4--4----------------------------|
C#|---------------------------------------------------------------------------|

       Rhythm R
D#|---------------------------------------------------------------------------|
A#|---------------------------------------------------------------------------|
F#|---------------------------------------------------------------------------|
C#|----9----9--9----9--9--------9--9----9--9--9--9----------------------------|
G#|----9----9--9----9--9--------9--9----9--9--9--9----------------------------|
C#|----9----9--9----9--9--------9--9----9--9--9--9----------------------------|

D#|---------------------------------------------------------------------------|
A#|---------------------------------------------------------------------------|
F#|---------------------------------------------------------------------------|
C#|----4----4--4----4--4--------4--4----4--4--4--4----------------------------|
G#|----4----4--4----4--4--------4--4----4--4--4--4----------------------------|
C#|----4----4--4----4--4--------4--4----4--4--4--4----------------------------|


       Rhythm
D#|---------------------------------------------------------------------------|
A#|---------------------------------------------------------------------------|
F#|---------------------------------------------------------------------------|
C#|---------------------------------------------------------------------------|  x2
G#|----2--2-------------------2--2-----2--2-----------------------------------|
C#|----2--2-------------------2--2-----2--2-----------------------------------|
       *  *                   *  *     *  *

       Lead
D#|---------------------------------------------------------------------------|
A#|----12---12-12--12-12--------12-12--12-12-12-12----------------------------|
F#|----11---11-11--11-11--------11-11--11-11-11-11----------------------------|
C#|----9----9--9---9--9---------9--9---9--9--9--9-----------------------------|  x2
G#|---------------------------------------------------------------------------|
C#|---------------------------------------------------------------------------|


       Rhythm L
D#|---------------------------------------------------------------------------|
A#|---------------------------------------------------------------------------|
F#|----11---11-11---11-11-------11-11---11-11-11-11---------------------------|
C#|----x----x--x----x--x--------x--x----x--x--x--x----------------------------|
G#|----9----9--9----9--9--------9--9----9--9--9--9----------------------------|
C#|---------------------------------------------------------------------------|

D#|---------------------------------------------------------------------------|
A#|---------------------------------------------------------------------------|
F#|----6----6--6----6--6--------6--6----6--6--6--6----------------------------|
C#|----x----x--x----x--x--------x--x----x--x--x--x----------------------------|
G#|----4----4--4----4--4--------4--4----4--4--4--4----------------------------|
C#|---------------------------------------------------------------------------|

       Rhythm R
D#|---------------------------------------------------------------------------|
A#|---------------------------------------------------------------------------|
F#|---------------------------------------------------------------------------|
C#|----9----9--9----9--9--------9--9----9--9--9--9----------------------------|
G#|----9----9--9----9--9--------9--9----9--9--9--9----------------------------|
C#|----9----9--9----9--9--------9--9----9--9--9--9----------------------------|

D#|---------------------------------------------------------------------------|
A#|---------------------------------------------------------------------------|
F#|---------------------------------------------------------------------------|
C#|----4----4--4----4--4--------4--4----4--4--4--4----------------------------|
G#|----4----4--4----4--4--------4--4----4--4--4--4----------------------------|
C#|----4----4--4----4--4--------4--4----4--4--4--4----------------------------|





Pre Chorus
1:02 - Rhythm L 
D#|---------------------------------------------------------------------------|
A#|---------------------------------------------------------------------------|
F#|----8----8----8-----------------------11---11------------------------------|
C#|--------------------11----11----11-----------------------------------------|
G#|---------------------------------------------------------------------------|
C#|---------------------------------------------------------------------------|
       *    *    *     *     *     *     *    *
D#|---------------------------------------------------------------------------|
A#|---------------------------------------------------------------------------|
F#|----11---11---11----11----11----11----11---11------------------------------|
C#|---------------------------------------------------------------------------|
G#|---------------------------------------------------------------------------|
C#|---------------------------------------------------------------------------|
       *    *    *     *     *     *     *    *
D#|---------------------------------------------------------------------------|
A#|---------------------------------------------------------------------------|
F#|----8----8----8-----------------------11---11------------------------------|
C#|--------------------11----11----11-----------------------------------------|
G#|---------------------------------------------------------------------------|
C#|---------------------------------------------------------------------------|
       *    *    *     *     *     *     *    *
D#|---------------------------------------------------------------------------|
A#|---------------------------------------------------------------------------|
F#|----11---11---11----11----11-----------------------------------------------|
C#|---------------------------------------------------------------------------|
G#|---------------------------------------------------------------------------|
C#|---------------------------------------------------------------------------|
    
       Rhythm R
D#|---------------------------------------------------------------------------|
A#|---------------------------------------------------------------------------|
F#|----4---------4---------4---------4---------4------------------------------|
C#|---------4---------4---------4---------4-----------------------------------|
G#|---------------------------------------------------------------------------|
C#|---------------------------------------------------------------------------|

D#|---------------------------------------------------------------------------|
A#|---------------------------------------------------------------------------|
F#|----4---------4---------4---------4---------4------------------------------|
C#|---------4---------4---------4---------4-----------------------------------|
G#|---------------------------------------------------------------------------|
C#|---------------------------------------------------------------------------|

D#|---------------------------------------------------------------------------|
A#|---------------------------------------------------------------------------|
F#|----4---------4---------4---------4---------4------------------------------|
C#|---------4---------4---------4---------4-----------------------------------|
G#|---------------------------------------------------------------------------|
C#|---------------------------------------------------------------------------|

D#|---------------------------------------------------------------------------|
A#|---------------------------------------------------------------------------|
F#|----4----4----4----4----4--------------------------------------------------|
C#|----4----4----4----4----4--------------------------------------------------|
G#|---------------------------------------------------------------------------|
C#|---------------------------------------------------------------------------|




Chorus
1:09 - Rhythm
D#|---------------------------------------------------------------------------|
A#|---------------------------------------------------------------------------|
F#|-------------------------------------4-------------------------------------|
C#|----2--------2--------2----2----2----4-------------------------------------|
G#|----2--------2--------2----2----2----2-------------------------------------|
C#|----2--------2--------2----2----2------------------------------------------|

D#|---------------------------------------------------------------------------|
A#|---------------------------------------------------------------------------|
F#|--------4----4--------4----4----4------------------------------------------|
C#|--------4----4--------4----4----4------------------------------------------|
G#|--------2----2--------2----2----2----0-------------------------------------|
C#|-------------------------------------0-------------------------------------|
                                        *
D#|---------------------------------------------------------------------------|
A#|---------------------------------------------------------------------------|
F#|---------------------------------------------------------------------------|
C#|----6--------6--------6----9---------4-------------------------------------|
G#|----6--------6--------6----9----0----4-------------------------------------|
C#|----6--------6--------6----9----0----4-------------------------------------|
                                   *
D#|---------------------------------------------------------------------------|
A#|---------------------------------------------------------------------------|
F#|---------------------------------------------------------------------------|   
C#|--------4----4--------4----6----6----6-------------------------------------|  x4
G#|--------4----4--------4----6----6----6-------------------------------------|
C#|--------4----4--------4----6----6----6-------------------------------------|

Lead
D#|---------------------------------------------------------------------------|
A#|--------------------12-----------------------------------------------------|
F#|----9---11---11-------------11---------------------------------------------|
C#|-------------------------------------8-------------------------------------|
G#|---------------------------------------------------------------------------|
C#|---------------------------------------------------------------------------|

D#|---------------------------------------------------------------------------|
A#|---------------------------------------------------------------------------|
F#|-------------------9/11----------------------------------------------------|
C#|--------9----9--------------11---------------------------------------------|
G#|---------------------------------------------------------------------------|
C#|---------------------------------------------------------------------------|

D#|---------------------------------------------------------------------------|
A#|--------------------12-----------------------------------------------------|
F#|----9---11---11-------------11---------------------------------------------|
C#|-------------------------------------8-------------------------------------|
G#|---------------------------------------------------------------------------|
C#|---------------------------------------------------------------------------|

D#|---------------------------------------------------------------------------|
A#|---------------------------------------------------------------------------|
F#|-------------------9/11----------------------------------------------------|
C#|--------9----9-------------11---9----8-------------------------------------|  x2
G#|---------------------------------------------------------------------------|
C#|---------------------------------------------------------------------------|


D#|---------------------------------------------------------------------------|
A#|--------------------12-----------------------------------------------------|
F#|----9---11---11-------------11---------------------------------------------|
C#|-------------------------------------8-------------------------------------|
G#|---------------------------------------------------------------------------|
C#|---------------------------------------------------------------------------|

D#|---------------------------------------------------------------------------|
A#|---------------------------------------------------------------------------|
F#|-------------------9/11----------------------------------------------------|
C#|--------9----9--------------11---------------------------------------------|
G#|---------------------------------------------------------------------------|
C#|---------------------------------------------------------------------------|

D#|---------------------------------------------------------------------------|
A#|--------------------12-----------------------------------------------------|
F#|----9---11---11-------------11---------------------------------------------|
C#|-------------------------------------8-------------------------------------|
G#|---------------------------------------------------------------------------|
C#|---------------------------------------------------------------------------|

D#|---------------------------------------------------------------------------|
A#|---------------------------------------------------------------------------|
F#|-------------------9--------8----------------------------------------------|
C#|--------9----9------------------11---9-------------------------------------|  x2
G#|---------------------------------------------------------------------------|
C#|---------------------------------------------------------------------------|





1:39 - Rhythm
D#|---------------------------------------------------------------------------|
A#|---------------------------------------------------------------------------|
F#|---------------------------------------------------------------------------|
C#|----2----------------------------------------------------------------------|
G#|----2----------------------------------------------------------------------|
C#|----2----------------------------------------------------------------------|

D#|---------------------------------------------------------------------------|
A#|---------------------------------------------------------------------------|
F#|---------------------------------------------------------------------------|
C#|----4----------------------------------------------------------------------|
G#|----4----------------------------------------------------------------------|
C#|----4----------------------------------------------------------------------|

       Lead
D#|---------------------------------------------------------------------------|
A#|---------------------------------------------------------------------------|
F#|---------------------------------------------------------------------------|
C#|----9----------------------------------------------------------------------|
G#|---------------------------------------------------------------------------|
C#|---------------------------------------------------------------------------|

D#|---------------------------------------------------------------------------|
A#|---------------------------------------------------------------------------|
F#|---------------------------------------------------------------------------|
C#|----11---------------------------------------------------------------------|
G#|---------------------------------------------------------------------------|
C#|---------------------------------------------------------------------------|




Bridge
1:42 - Both Guitars
D#|---------------------------------------------------------------------------|
A#|---------------------------------------------------------------------------|
F#|---------------------------------------------------------------------------|
C#|----6----6----6--------6---------------------------------------------------|
G#|----6----6----6--------6---------------------------------------------------|
C#|----6----6----6--------6---------------------------------------------------|

D#|---------------------------------------------------------------------------|
A#|---------------------------------------------------------------------------|
F#|----9----9----9--------9---------------------------------------------------|
C#|----9----9----9--------9---------------------------------------------------|
G#|----7----7----7--------7---------------------------------------------------|
C#|---------------------------------------------------------------------------|

Rhythm
D#|---------------------------------------------------------------------------|
A#|---------------------------------------------------------------------------|
F#|---------------------------------------------------------------------------|
C#|----9----9----9----9----9----9----9----9-----------------------------------|
G#|----9----9----9----9----9----9----9----9-----------------------------------|
C#|----9----9----9----9----9----9----9----9-----------------------------------|

D#|---------------------------------------------------------------------------|
A#|---------------------------------------------------------------------------|
F#|---------------------------------------------------------------------------|
C#|---------9----9----9----9----9----9----9-----------------------------------|
G#|---------9----9----9----9----9----9----9-----------------------------------|
C#|---------9----9----9----9----9----9----9-----------------------------------|

D#|---------------------------------------------------------------------------|
A#|---------------------------------------------------------------------------|
F#|---------------------------------------------------------------------------|
C#|----8----8----8----8----8----8----8----4-----------------------------------|
G#|----9----9----9----9----9----9----9----4-----------------------------------|
C#|----8----8----8----8----8----8----8----4-----------------------------------|

D#|---------------------------------------------------------------------------|
A#|---------------------------------------------------------------------------|
F#|---------------------------------------------------------------------------|
C#|---------4----4----4----4----4----4----4-----------------------------------|  
G#|---------4----4----4----4----4----4----4-----------------------------------|
C#|---------4----4----4----4----4----4----4-----------------------------------|

Lead
D#|----14-------------14-------------14---------------------------------------|
A#|---------12-------------12-------------12----------------------------------|
F#|--------------11-------------11--------------------------------------------|
C#|---------------------------------------------------------------------------|
G#|---------------------------------------------------------------------------|
C#|---------------------------------------------------------------------------|

D#|---------14--------------14------------------------------------------------|
A#|--------------12--------------12--------12---------------------------------|
F#|----11-------------11--------------11--------------------------------------|
C#|---------------------------------------------------------------------------|
G#|---------------------------------------------------------------------------|
C#|---------------------------------------------------------------------------|

D#|----11-------------11-------------11---------------------------------------|
A#|---------12-------------12-------------12----------------------------------|
F#|--------------11-------------11--------------------------------------------|
C#|---------------------------------------------------------------------------|
G#|---------------------------------------------------------------------------|
C#|---------------------------------------------------------------------------|

D#|---------11-------------11-------------------------------------------------|
A#|--------------12-------------12--------12----------------------------------|
F#|----11-------------11-------------11---------------------------------------|
C#|---------------------------------------------------------------------------|
G#|---------------------------------------------------------------------------|
C#|---------------------------------------------------------------------------|


Both Guitars
D#|---------------------------------------------------------------------------|
A#|---------------------------------------------------------------------------|
F#|---------------------------------------------------------------------------|
C#|----6----6----6--------6---------------------------------------------------|
G#|----6----6----6--------6---------------------------------------------------|
C#|----6----6----6--------6---------------------------------------------------|

D#|---------------------------------------------------------------------------|
A#|---------------------------------------------------------------------------|
F#|----9----9----9--------9---------------------------------------------------|
C#|----9----9----9--------9---------------------------------------------------|
G#|----7----7----7--------7---------------------------------------------------|
C#|---------------------------------------------------------------------------|

Rhythm
D#|---------------------------------------------------------------------------|
A#|---------------------------------------------------------------------------|
F#|---------------------------------------------------------------------------|
C#|----9----9----9----9----9----9----9----9-----------------------------------|
G#|----9----9----9----9----9----9----9----9-----------------------------------|
C#|----9----9----9----9----9----9----9----9-----------------------------------|

D#|---------------------------------------------------------------------------|
A#|---------------------------------------------------------------------------|
F#|---------------------------------------------------------------------------|
C#|---------9----9----9----9----9----9----9-----------------------------------|
G#|---------9----9----9----9----9----9----9-----------------------------------|
C#|---------9----9----9----9----9----9----9-----------------------------------|

D#|---------------------------------------------------------------------------|
A#|---------------------------------------------------------------------------|
F#|---------------------------------------6-----------------------------------|
C#|----8----8----8----8----8----8----8----6-----------------------------------|
G#|----9----9----9----9----9----9----9----4-----------------------------------|
C#|----8----8----8----8----8----8----8----------------------------------------|

D#|---------------------------------------------------------------------------|
A#|---------------------------------------------------------------------------|
F#|---------6----6----6----6--------------------------------------------------|
C#|---------6----6----6----6----4----4----5-----------------------------------|  
G#|---------4----4----4----4----4----4----5-----------------------------------|
C#|-----------------------------4----4----5-----------------------------------|

Lead
D#|----14-------------14-------------14---------------------------------------|
A#|---------12-------------12-------------12----------------------------------|
F#|--------------11-------------11--------------------------------------------|
C#|---------------------------------------------------------------------------|
G#|---------------------------------------------------------------------------|
C#|---------------------------------------------------------------------------|

D#|---------14--------------14------------------------------------------------|
A#|--------------12--------------12--------12---------------------------------|
F#|----11-------------11--------------11--------------------------------------|
C#|---------------------------------------------------------------------------|
G#|---------------------------------------------------------------------------|
C#|---------------------------------------------------------------------------|

D#|----11-------------11-------------11---------------------------------------|
A#|---------12-------------12-------------12----------------------------------|
F#|--------------11-------------11--------------------------------------------|
C#|---------------------------------------------------------------------------|
G#|---------------------------------------------------------------------------|
C#|---------------------------------------------------------------------------|

D#|---------11-------------11-------------------------------------------------|
A#|--------------12-------------12--------12----------------------------------|
F#|----11-------------11-------------11---------------------------------------|
C#|---------------------------------------------------------------------------|
G#|---------------------------------------------------------------------------|
C#|---------------------------------------------------------------------------|





Pre Chorus
2:12 - Guitar L
D#|---------------------------------------------------------------------------|
A#|---------------------------------------------------------------------------|
F#|---------------------------------------------------------------------------|
C#|----------------------------------4----4-----------------------------------|
G#|----6----6----6----4----4----4----2----2-----------------------------------|
C#|----6----6----6----4----4----4---------------------------------------------|
       *    *    *    *    *    *    *    *

D#|---------------------------------------------------------------------------|
A#|---------------------------------------------------------------------------|
F#|---------------------------------------------------------------------------|
C#|----4----4----4----4----4----4----4----4-----------------------------------|
G#|----2----2----2----2----2----2----2----2-----------------------------------|
C#|---------------------------------------------------------------------------|
       *    *    *    *    *    *    *    *
D#|---------------------------------------------------------------------------|
A#|---------------------------------------------------------------------------|
F#|---------------------------------------------------------------------------|
C#|----------------------------------4----4-----------------------------------|
G#|----6----6----6----4----4----4----2----2-----------------------------------|
C#|----6----6----6----4----4----4---------------------------------------------|
       *    *    *    *    *    *    *    *

D#|---------------------------------------------------------------------------|
A#|---------------------------------------------------------------------------|
F#|---------------------------------------------------------------------------|
C#|----4----4----4----4----4--------------------------------------------------|
G#|----2----2----2----2----2--------------------------------------------------|
C#|---------------------------------------------------------------------------|
       *    *    *    *    *    




Chorus
2:19 - Rhythm
D#|---------------------------------------------------------------------------|
A#|---------------------------------------------------------------------------|
F#|-------------------------------------4-------------------------------------|
C#|----2--------2--------2----2----2----4-------------------------------------|
G#|----2--------2--------2----2----2----2-------------------------------------|
C#|----2--------2--------2----2----2------------------------------------------|

D#|---------------------------------------------------------------------------|
A#|---------------------------------------------------------------------------|
F#|--------4----4--------4----4----4------------------------------------------|
C#|--------4----4--------4----4----4------------------------------------------|
G#|--------2----2--------2----2----2----0-------------------------------------|
C#|-------------------------------------0-------------------------------------|
                                        *
D#|---------------------------------------------------------------------------|
A#|---------------------------------------------------------------------------|
F#|---------------------------------------------------------------------------|
C#|----6--------6--------6----9---------4-------------------------------------|
G#|----6--------6--------6----9----0----4-------------------------------------|
C#|----6--------6--------6----9----0----4-------------------------------------|
                                   *
D#|---------------------------------------------------------------------------|
A#|---------------------------------------------------------------------------|
F#|---------------------------------------------------------------------------|   
C#|--------4----4--------4----6----6----6-------------------------------------|  x4
G#|--------4----4--------4----6----6----6-------------------------------------|
C#|--------4----4--------4----6----6----6-------------------------------------|

Lead
D#|---------------------------------------------------------------------------|
A#|--------------------12-----------------------------------------------------|
F#|----9---11---11-------------11---------------------------------------------|
C#|-------------------------------------8-------------------------------------|
G#|---------------------------------------------------------------------------|
C#|---------------------------------------------------------------------------|

D#|---------------------------------------------------------------------------|
A#|---------------------------------------------------------------------------|
F#|-------------------9/11----------------------------------------------------|
C#|--------9----9--------------11---------------------------------------------|
G#|---------------------------------------------------------------------------|
C#|---------------------------------------------------------------------------|

D#|---------------------------------------------------------------------------|
A#|--------------------12-----------------------------------------------------|
F#|----9---11---11-------------11---------------------------------------------|
C#|-------------------------------------8-------------------------------------|
G#|---------------------------------------------------------------------------|
C#|---------------------------------------------------------------------------|

D#|---------------------------------------------------------------------------|
A#|---------------------------------------------------------------------------|
F#|-------------------9/11----------------------------------------------------|
C#|--------9----9-------------11---9----8-------------------------------------|  x2
G#|---------------------------------------------------------------------------|
C#|---------------------------------------------------------------------------|


D#|---------------------------------------------------------------------------|
A#|--------------------12-----------------------------------------------------|
F#|----9---11---11-------------11---------------------------------------------|
C#|-------------------------------------8-------------------------------------|
G#|---------------------------------------------------------------------------|
C#|---------------------------------------------------------------------------|

D#|---------------------------------------------------------------------------|
A#|---------------------------------------------------------------------------|
F#|-------------------9/11----------------------------------------------------|
C#|--------9----9--------------11---------------------------------------------|
G#|---------------------------------------------------------------------------|
C#|---------------------------------------------------------------------------|

D#|---------------------------------------------------------------------------|
A#|--------------------12-----------------------------------------------------|
F#|----9---11---11-------------11---------------------------------------------|
C#|-------------------------------------8-------------------------------------|
G#|---------------------------------------------------------------------------|
C#|---------------------------------------------------------------------------|

D#|---------------------------------------------------------------------------|
A#|---------------------------------------------------------------------------|
F#|-------------------9--------8----------------------------------------------|
C#|--------9----9------------------11---9-------------------------------------|  x2
G#|---------------------------------------------------------------------------|
C#|---------------------------------------------------------------------------|





2:49 - Rhythm
D#|---------------------------------------------------------------------------|
A#|---------------------------------------------------------------------------|
F#|---------------------------------------------------------------------------|
C#|----2----------------------------------------------------------------------|
G#|----2----------------------------------------------------------------------|
C#|----2----------------------------------------------------------------------|

D#|---------------------------------------------------------------------------|
A#|---------------------------------------------------------------------------|
F#|---------------------------------------------------------------------------|
C#|----4----------------------------------------------------------------------|
G#|----4----------------------------------------------------------------------|
C#|----4----------------------------------------------------------------------|

       Lead
D#|---------------------------------------------------------------------------|
A#|---------------------------------------------------------------------------|
F#|---------------------------------------------------------------------------|
C#|----9----------------------------------------------------------------------|
G#|---------------------------------------------------------------------------|
C#|---------------------------------------------------------------------------|

D#|---------------------------------------------------------------------------|
A#|---------------------------------------------------------------------------|
F#|---------------------------------------------------------------------------|
C#|----11---------------------------------------------------------------------|
G#|---------------------------------------------------------------------------|
C#|---------------------------------------------------------------------------|




Outro
2:53 - Guitar L
D#|---------------------------------------------------------------------------|
A#|---------------------------------------------------------------------------|
F#|--------------------------------4------------------------------------------|
C#|----6----6--------4----4--------4----2-------------------------------------|
G#|----6----6--------4----4--------2----2-------------------------------------|
C#|----6----6--------4----4-------------2-------------------------------------|

       Guitar R
D#|---------------------------------------------------------------------------|
A#|---------------------------------------------------------------------------|
F#|----13---13-------15---15-------15---16------------------------------------|
C#|----x----x--------x----x--------x----x-------------------------------------|
G#|----11---11-------13---13-------13---14------------------------------------|
C#|---------------------------------------------------------------------------|




************************************
| *   palm mute
| /   slide up
| \   slide down
| h   hammer-on
| p   pull-off
| ~   vibrato
| +   harmonic
| x   Mute note
| b   Bend
| pb  Pre-bend
| br  Bend release
| pbr Pre-bend release
| brb Bend release bend

************************************

            
            
Suggest correction
Creating personal tab
Creating personal tab
You can edit any tab online and save it as your Personal.

You can edit, replace or remove any tab part or add personal notes – all changes will be seen only by you.

Personal tabs can be accessed anytime from any device, even offline.
Learn more »
Give kudos to tab author, rate the tab!
1 2 3 4 5
comments
print report bad tab
1 comment total.
0 reply
texastechsunited 20 Jan 20, 2017 03:47 PM

Great tab!

guest
You may want to rate the tab now too:
select rating
Wanna post a correction for this tab? Suggest correction