Oops, an error
Loading. Please wait.

Shape Up tab

version 1
version 1

Whole song

Interactive

922 views 6 this week
no commentswrite comment
1 2 3 4 5
2 more votes to show rating
add to favorites
×
Save as Personal and add changes to this tab that will be seen only by you. Learn more ›
×
You can save this tab as Personal to edit and correct it or add notes. All changes will be seen only by you. Learn more »
launch autoscroll
font size
0
reset
how to read this tab
guitar tuner
edit
Autoscroll
slow
fast
+/-
esc
set tempo
stop
-------------------------------------------------------------------------------
                           State Champs - Shape Up
-------------------------------------------------------------------------------
Tabbed by: scottismad
E-mail: scott.simpson@hotmail.com.au

Tuning: Drop C#


0:01 - Rhythm
Intro
D#|---------------------------------------------------------------------------|
A#|---------------------------------------------------------------------------|
F#|---------------------------------------------------------------------------|
C#|---------------------------------------------------------------------------|
G#|----7----(7\)---x--7-----7--4-----4-----x--4-----4-------------------------|
C#|----7----(7\)---x--7-----7--4-----4-----x--4-----4-------------------------|

D#|---------------------------------------------------------------------------|
A#|---------------------------------------------------------------------------|
F#|---------------------------------------------------------------------------|
C#|---------------------------------------------------------------------------|
G#|----2-----2-----x--2-----2--2-----2-----x--x--x--x-------------------------|
C#|----2-----2-----x--2-----2--2-----2-----x--x--x--x-------------------------|


D#|---------------------------------------------------------------------------|
A#|---------------------------------------------------------------------------|
F#|---------------------------------------------------------------------------|
C#|----7-----7-----x--7-----7--4-----4-----x--4-----4-------------------------|
G#|----7-----7-----x--7-----7--4-----4-----x--4-----4-------------------------|
C#|----7-----7-----x--7-----7--4-----4-----x--4-----4-------------------------|

D#|---------------------------------------------------------------------------|
A#|---------------------------------------------------------------------------|
F#|---------------------------------------------------------------------------|
C#|----2-----2-----x--2-----2--2-----2-----------2----------------------------|
G#|----2-----2-----x--2-----2--2-----2-----2--2--2----------------------------|
C#|----2-----2-----x--2-----2--2-----2-----2--2--2----------------------------|
                                           *  *
D#|---------------------------------------------------------------------------|
A#|---------------------------------------------------------------------------|
F#|---------------------------------------------------------------------------|
C#|----7-----7-----x--7-----7--4-----4-----x--4-----4-------------------------|
G#|----7-----7-----x--7-----7--4-----4-----x--4-----4-------------------------|
C#|----7-----7-----x--7-----7--4-----4-----x--4-----4-------------------------|

D#|---------------------------------------------------------------------------|
A#|---------------------------------------------------------------------------|
F#|---------------------------------------------------------------------------|
C#|----2-----2-----x--2-----2--2-----2-----4--4--4--4-------------------------|
G#|----2-----2-----x--2-----2--2-----2-----2--2--2--2-------------------------|
C#|----2-----2-----x--2-----2--2-----2-----2--2--2--2-------------------------|

D#|---------------------------------------------------------------------------|
A#|---------------------------------------------------------------------------|
F#|---------------------------------------------------------------------------|
C#|----7-----7-----------------4-----4----------------------------------------|
G#|----7-----7-----------------4-----4----------------------------------------|
C#|----7-----7-----------------4-----4----------------------------------------|

                                           

0:06 - Lead
D#|---------------------------------------------------------------------------|
A#|---------------------------------------------------------------------------|
F#|----13----13----x--9-----9--11----11----x--13---(13\)----------------------|
C#|----x-----x-----x--x-----x--x-----x-----x--x-----x-------------------------|
G#|----11----11----x--7-----7--9-----9-----x--11---(11\)----------------------|
C#|---------------------------------------------------------------------------|

D#|---------------------------------------------------------------------------|
A#|---------------------------------------------------------------------------|
F#|----9-----9-----x--13-(13\)-9-----9-----x--x--11---------------------------|
C#|----x-----x-----x--x--------x-----x-----x--x--x----------------------------|  x2
G#|----7-----7-----x--11-(11\)-7-----7-----x--x--9----------------------------|
C#|---------------------------------------------------------------------------|


0:11 - 2nd Lead
D#|---------------------------------------------------------------------------|
A#|----12----9-----7h-9p-7-----10-------9--------7----------------------------|
F#|-------9-----9-----------9-----9--9-----9--9-----9-------------------------|
C#|---------------------------------------------------------------------------|
G#|---------------------------------------------------------------------------|
C#|---------------------------------------------------------------------------|

D#|---------------------------------------------------------------------------|
A#|----12----9-----7h-9p-7-----------------9-----7h-9-------------------------|
F#|-------9-----9-----------9--8----------------------------------------------|
C#|-------------------------------9--9--9-----9-------------------------------|
G#|---------------------------------------------------------------------------|
C#|---------------------------------------------------------------------------|

D#|---------------------------------------------------------------------------|
A#|---------------------------------------------------------------------------|
F#|----16----16----------------14----14---------------------------------------|
C#|----x-----x-----------------x-----x----------------------------------------|
G#|----14----14----------------12----12---------------------------------------|
C#|---------------------------------------------------------------------------|

D#|-------------------0-----------------------0-------------------------------|
A#|-------------0-----------------------0-------------------------------------|
F#|----1h-2--2--------------1-----2-------------------------------------------|
C#|---------------------------------------------------------------------------|
G#|---------------------------------------------------------------------------|
C#|---------------------------------------------------------------------------|




Verse
0:22 - Rhythm
D#|---------------------------------------------------------------------------|
A#|---------------------------------------------------------------------------|
F#|----9-----9--9--9--9--9--9--9--9--9--9--9--9--9--9-------------------------|
C#|----9-----9--9--9--9--9--9--9--9--9--9--9--9--9--9-------------------------|
G#|----7-----7--7--7--7--7--7--7--7--7--7--7--7--7--7-------------------------|
C#|---------------------------------------------------------------------------|

D#|---------------------------------------------------------------------------|
A#|---------------------------------------------------------------------------|
F#|----6--6--6--6--6--6--6--4-----4--4--4--4--4--4--4-------------------------|
C#|----6--6--6--6--6--6--6--4-----4--4--4--4--4--4--4-------------------------|
G#|----4--4--4--4--4--4--4--2-----2--2--2--2--2--2--2-------------------------|
C#|---------------------------------------------------------------------------|

D#|---------------------------------------------------------------------------|
A#|---------------------------------------------------------------------------|
F#|----9--9--9--9--9--9--9--9--9--9--9--9--9--9--9--9-------------------------|
C#|----9--9--9--9--9--9--9--9--9--9--9--9--9--9--9--9-------------------------|
G#|----7--7--7--7--7--7--7--7--7--7--7--7--7--7--7--7-------------------------|
C#|---------------------------------------------------------------------------|

D#|---------------------------------------------------------------------------|
A#|---------------------------------------------------------------------------|
F#|----6--6--6--6--6--6--6--4-----4--4--4--4-----4----------------------------|
C#|----6--6--6--6--6--6--6--4-----4--4--4--4-----4----------------------------|
G#|----4--4--4--4--4--4--4--2-----2--2--2--2-----2----------------------------|
C#|---------------------------------------------------------------------------|


D#|---------------------------------------------------------------------------|
A#|---------------------------------------------------------------------------|
F#|---------------------------------------------------------------------------|
C#|----2--2-----2--2-----2--2-----2--2-----2-----2----------------------------|
G#|----2--2-----2--2-----2--2-----2--2-----2-----2----------------------------|
C#|----2--2-----2--2-----2--2-----2--2-----2-----2----------------------------|

D#|---------------------------------------------------------------------------|
A#|---------------------------------------------------------------------------|
F#|----6--6--6--6--6--6--6--4-----4--4--4--4--4--4--4-------------------------|
C#|----6--6--6--6--6--6--6--4-----4--4--4--4--4--4--4-------------------------|
G#|----4--4--4--4--4--4--4--2-----2--2--2--2--2--2--2-------------------------|
C#|---------------------------------------------------------------------------|

D#|---------------------------------------------------------------------------|
A#|---------------------------------------------------------------------------|
F#|---------------------------------------------------------------------------|
C#|----2--2-----2--2-----2--2-----2--2-----2-----2----------------------------|
G#|----2--2-----2--2-----2--2-----2--2-----2-----2----------------------------|
C#|----2--2-----2--2-----2--2-----2--2-----2-----2----------------------------|

D#|---------------------------------------------------------------------------|
A#|---------------------------------------------------------------------------|
F#|----6--6--6--9--9--9--4--------4--4--4--4--6-------------------------------|
C#|----6--6--6--9--9--9--4--------4--4--4--4--6-------------------------------|
G#|----4--4--4--7--7--7--2--------2--2--2--2--4-------------------------------|
C#|---------------------------------------------------------------------------|


0:32 - Lead
D#|---------------------------------------------------------------------------|
A#|----7h-9p-7--5--5-----7h-9p-7--5--5--5--5--5--5--5-------------------------|
F#|---------------------------------------------------------------------------|
C#|---------------------------------------------------------------------------|
G#|---------------------------------------------------------------------------|
C#|---------------------------------------------------------------------------|

D#|----0--------------------7-----7--7--7--7--7--7--7-------------------------|
A#|----4-----4--4--4--4--4--5-------------------------------------------------|
F#|---------------------------------------------------------------------------|
C#|---------------------------------------------------------------------------|
G#|---------------------------------------------------------------------------|
C#|---------------------------------------------------------------------------|

D#|---------------------------------------------------------------------------|
A#|----7h-9p-7--5--5-----7h-9p-7--5--5-----5-----5----------------------------|
F#|---------------------------------------------------------------------------|
C#|---------------------------------------------------------------------------|
G#|---------------------------------------------------------------------------|
C#|---------------------------------------------------------------------------|

D#|---------------------------------------------------------------------------|
A#|---------------------------------------------------------------------------|
F#|----9--9--9--6--6--6--4--------4--4--4--4--6-------------------------------|
C#|----x--x--x--x--x--x--x--------x--x--x--x--x-------------------------------|
G#|----7--7--7--4--4--4--2--------2--2--2--2--4-------------------------------|
C#|---------------------------------------------------------------------------|





Chorus
0:42 - Rhythm
D#|---------------------------------------------------------------------------|
A#|---------------------------------------------------------------------------|
F#|---------------------------------------------------------------------------|
C#|----7-----7-----x--7-----7--4-----4-----x--4-----4-------------------------|
G#|----7-----7-----x--7-----7--4-----4-----x--4-----4-------------------------|
C#|----7-----7-----x--7-----7--4-----4-----x--4-----4-------------------------|

D#|---------------------------------------------------------------------------|
A#|---------------------------------------------------------------------------|
F#|---------------------------------------------------------------------------|
C#|----2-----2-----x--2-----2--2-----2-----------2----------------------------|
G#|----2-----2-----x--2-----2--2-----2-----2--2--2----------------------------|
C#|----2-----2-----x--2-----2--2-----2-----2--2--2----------------------------|
                                           *  *
D#|---------------------------------------------------------------------------|
A#|---------------------------------------------------------------------------|
F#|---------------------------------------------------------------------------|
C#|----7-----7-----x--7-----7--4-----4-----x--4-----4-------------------------|
G#|----7-----7-----x--7-----7--4-----4-----x--4-----4-------------------------|
C#|----7-----7-----x--7-----7--4-----4-----x--4-----4-------------------------|

D#|---------------------------------------------------------------------------|
A#|---------------------------------------------------------------------------|
F#|---------------------------------------------------------------------------|
C#|----2-----2-----x--2-----2--2-----2-----4--4--4--4-------------------------|
G#|----2-----2-----x--2-----2--2-----2-----2--2--2--2-------------------------|
C#|----2-----2-----x--2-----2--2-----2-----2--2--2--2-------------------------|

D#|---------------------------------------------------------------------------|
A#|---------------------------------------------------------------------------|
F#|---------------------------------------------------------------------------|
C#|----7-----7-----x--7-----7--4-----4-----x--4-----4-------------------------|
G#|----7-----7-----x--7-----7--4-----4-----x--4-----4-------------------------|
C#|----7-----7-----x--7-----7--4-----4-----x--4-----4-------------------------|

D#|---------------------------------------------------------------------------|
A#|---------------------------------------------------------------------------|
F#|----6-----6-----x--6-----6--4-----4-----x--4-----4-------------------------|
C#|----6-----6-----x--6-----6--4-----4-----x--4-----4-------------------------|
G#|----4-----4-----x--4-----4--2-----2-----x--2-----2-------------------------|
C#|---------------------------------------------------------------------------|

D#|---------------------------------------------------------------------------|
A#|---------------------------------------------------------------------------|
F#|---------------------------------------------------------------------------|
C#|----7-----7-----------------4-----4----------------------------------------|
G#|----7-----7-----------------4-----4----------------------------------------|
C#|----7-----7-----------------4-----4----------------------------------------|


0:42 - Lead
D#|---------------------------------------------------------------------------|
A#|---------------------------------------------------------------------------|
F#|----13----13----x--9-----9--11----11----x--13---(13\)----------------------|
C#|----x-----x-----x--x-----x--x-----x-----x--x-----x-------------------------|
G#|----11----11----x--7-----7--9-----9-----x--11---(11\)----------------------|
C#|---------------------------------------------------------------------------|

D#|---------------------------------------------------------------------------|
A#|---------------------------------------------------------------------------|
F#|----9-----9-----x--13-(13\)-9-----9-----x--x--11---------------------------|
C#|----x-----x-----x--x--------x-----x-----x--x--x----------------------------|  x2
G#|----7-----7-----x--11-(11\)-7-----7-----x--x--9----------------------------|
C#|---------------------------------------------------------------------------|

D#|---------------------------------------------------------------------------|
A#|----12----9-----7h-9p-7-----10-------9--------7----------------------------|
F#|-------9-----9-----------9-----9--9-----9--9-----9-------------------------|
C#|---------------------------------------------------------------------------|
G#|---------------------------------------------------------------------------|
C#|---------------------------------------------------------------------------|

D#|---------------------------------------------------------------------------|
A#|----12----9-----7h-9p-7-----------------9-----7h-9-------------------------|
F#|-------9-----9-----------9--8----------------------------------------------|
C#|-------------------------------9--9--9-----9-------------------------------|
G#|---------------------------------------------------------------------------|
C#|---------------------------------------------------------------------------|

D#|---------------------------------------------------------------------------|
A#|---------------------------------------------------------------------------|
F#|----16----16----------------14----14---------------------------------------|
C#|----x-----x-----------------x-----x----------------------------------------|
G#|----14----14----------------12----12---------------------------------------|
C#|---------------------------------------------------------------------------|

D#|-------------------0-----------------------0-------------------------------|
A#|-------------0-----------------------0-------------------------------------|
F#|----1h-2--2--------------1-----2-------------------------------------------|
C#|---------------------------------------------------------------------------|
G#|---------------------------------------------------------------------------|
C#|---------------------------------------------------------------------------|





Verse
1:03 - Rhythm
D#|---------------------------------------------------------------------------|
A#|---------------------------------------------------------------------------|
F#|----9-----9--9--9--9--9--9--9--9--9--9--9--9--9--9-------------------------|
C#|----9-----9--9--9--9--9--9--9--9--9--9--9--9--9--9-------------------------|
G#|----7-----7--7--7--7--7--7--7--7--7--7--7--7--7--7-------------------------|
C#|---------------------------------------------------------------------------|

D#|---------------------------------------------------------------------------|
A#|---------------------------------------------------------------------------|
F#|----6--6--6--6--6--6--6--4-----4--4--4--4--4--4--4-------------------------|
C#|----6--6--6--6--6--6--6--4-----4--4--4--4--4--4--4-------------------------|
G#|----4--4--4--4--4--4--4--2-----2--2--2--2--2--2--2-------------------------|
C#|---------------------------------------------------------------------------|

D#|---------------------------------------------------------------------------|
A#|---------------------------------------------------------------------------|
F#|----9--9--9--9--9--9--9--9--9--9--9--9--9--9--9--9-------------------------|
C#|----9--9--9--9--9--9--9--9--9--9--9--9--9--9--9--9-------------------------|
G#|----7--7--7--7--7--7--7--7--7--7--7--7--7--7--7--7-------------------------|
C#|---------------------------------------------------------------------------|

D#|---------------------------------------------------------------------------|
A#|---------------------------------------------------------------------------|
F#|----6--6--6--6--6--6--6--4-----4--4--4--4-----4----------------------------|
C#|----6--6--6--6--6--6--6--4-----4--4--4--4-----4----------------------------|
G#|----4--4--4--4--4--4--4--2-----2--2--2--2-----2----------------------------|
C#|---------------------------------------------------------------------------|


D#|---------------------------------------------------------------------------|
A#|---------------------------------------------------------------------------|
F#|---------------------------------------------------------------------------|
C#|----2--2-----2--2-----2--2-----2--2-----2-----2----------------------------|
G#|----2--2-----2--2-----2--2-----2--2-----2-----2----------------------------|
C#|----2--2-----2--2-----2--2-----2--2-----2-----2----------------------------|

D#|---------------------------------------------------------------------------|
A#|---------------------------------------------------------------------------|
F#|----6--6--6--6--6--6--6--4-----4--4--4--4--4--4--4-------------------------|
C#|----6--6--6--6--6--6--6--4-----4--4--4--4--4--4--4-------------------------|
G#|----4--4--4--4--4--4--4--2-----2--2--2--2--2--2--2-------------------------|
C#|---------------------------------------------------------------------------|

D#|---------------------------------------------------------------------------|
A#|---------------------------------------------------------------------------|
F#|---------------------------------------------------------------------------|
C#|----2--2-----2--2-----2--2-----2--2-----2-----2----------------------------|
G#|----2--2-----2--2-----2--2-----2--2-----2-----2----------------------------|
C#|----2--2-----2--2-----2--2-----2--2-----2-----2----------------------------|

D#|---------------------------------------------------------------------------|
A#|---------------------------------------------------------------------------|
F#|----6--6--6--6--6--6--4--------4--4--4--4--4--4--4-------------------------|
C#|----6--6--6--6--6--6--4--------4--4--4--4--4--4--4-------------------------|
G#|----4--4--4--4--4--4--2--------2--2--2--2--2--2--2-------------------------|
C#|---------------------------------------------------------------------------|


1:13 - Lead 
D#|---------------------------------------------------------------------------|
A#|----7h-9p-7--5--5--5--7h-9p-7--5--5--5--5--5--5--5-------------------------|
F#|---------------------------------------------------------------------------|
C#|---------------------------------------------------------------------------|
G#|---------------------------------------------------------------------------|
C#|---------------------------------------------------------------------------|

D#|----0--------------------7-----7--7--7--7--7--7--7-------------------------|
A#|----4-----4--4--4--4--4--5-------------------------------------------------|
F#|---------------------------------------------------------------------------|
C#|---------------------------------------------------------------------------|
G#|---------------------------------------------------------------------------|
C#|---------------------------------------------------------------------------|

D#|---------------------------------------------------------------------------|
A#|----7h-9p-7--5--5-----7h-9p-7--5--5-----5--5--5----------------------------|
F#|---------------------------------------------------------------------------|
C#|---------------------------------------------------------------------------|
G#|---------------------------------------------------------------------------|
C#|---------------------------------------------------------------------------|

D#|---------------------------------------------------------------------------|
A#|---------------------------------------------------------------------------|
F#|----9--------8-----------6--------4-----4--4--4--4-------------------------|
C#|----x--------x-----------x--------x-----x--x--x--x-------------------------|
G#|----7--------6-----------4--------2-----2--2--2--2-------------------------|
C#|---------------------------------------------------------------------------|





Pre Chorus
1:24 - Rhythm
D#|---------------------------------------------------------------------------|
A#|---------------------------------------------------------------------------|
F#|---------------------------------------------------------------------------|
C#|----7-----------------------9----------------------------------------------|
G#|----7-----------------------9----------------------------------------------|
C#|----7-----------------------9----------------------------------------------|

D#|---------------------------------------------------------------------------|
A#|---------------------------------------------------------------------------|
F#|----6--------9--------4--------4--4--4--4--6-------------------------------|
C#|----6--------9--------4--------4--4--4--4--6-------------------------------|
G#|----4--------7--------2--------2--2--2--2--4-------------------------------|
C#|---------------------------------------------------------------------------|





Chorus
1:29 - Rhythm
D#|---------------------------------------------------------------------------|
A#|---------------------------------------------------------------------------|
F#|---------------------------------------------------------------------------|
C#|----7-----7-----x--7-----7--4-----4-----x--4-----4-------------------------|
G#|----7-----7-----x--7-----7--4-----4-----x--4-----4-------------------------|
C#|----7-----7-----x--7-----7--4-----4-----x--4-----4-------------------------|

D#|---------------------------------------------------------------------------|
A#|---------------------------------------------------------------------------|
F#|---------------------------------------------------------------------------|
C#|----2-----2-----x--2-----2--2-----2-----------2----------------------------|
G#|----2-----2-----x--2-----2--2-----2-----2--2--2----------------------------|
C#|----2-----2-----x--2-----2--2-----2-----2--2--2----------------------------|
                                           *  *
D#|---------------------------------------------------------------------------|
A#|---------------------------------------------------------------------------|
F#|---------------------------------------------------------------------------|
C#|----7-----7-----x--7-----7--4-----4-----x--4-----4-------------------------|
G#|----7-----7-----x--7-----7--4-----4-----x--4-----4-------------------------|
C#|----7-----7-----x--7-----7--4-----4-----x--4-----4-------------------------|

D#|---------------------------------------------------------------------------|
A#|---------------------------------------------------------------------------|
F#|---------------------------------------------------------------------------|
C#|----2-----2-----x--2-----2--2-----2-----4--4--4--4-------------------------|
G#|----2-----2-----x--2-----2--2-----2-----2--2--2--2-------------------------|
C#|----2-----2-----x--2-----2--2-----2-----2--2--2--2-------------------------|

D#|---------------------------------------------------------------------------|
A#|---------------------------------------------------------------------------|
F#|---------------------------------------------------------------------------|
C#|----7-----7-----x--7-----7--4-----4-----x--4-----4-------------------------|
G#|----7-----7-----x--7-----7--4-----4-----x--4-----4-------------------------|
C#|----7-----7-----x--7-----7--4-----4-----x--4-----4-------------------------|

D#|---------------------------------------------------------------------------|
A#|---------------------------------------------------------------------------|
F#|----6-----6-----x--6-----6--4-----4-----x--4-----4-------------------------|
C#|----6-----6-----x--6-----6--4-----4-----x--4-----4-------------------------|
G#|----4-----4-----x--4-----4--2-----2-----x--2-----2-------------------------|
C#|---------------------------------------------------------------------------|

D#|---------------------------------------------------------------------------|
A#|---------------------------------------------------------------------------|
F#|---------------------------------------------------------------------------|
C#|----7-----7-----------------4-----4----------------------------------------|
G#|----7-----7-----------------4-----4----------------------------------------|
C#|----7-----7-----------------4-----4----------------------------------------|


1:29 - Lead
D#|---------------------------------------------------------------------------|
A#|---------------------------------------------------------------------------|
F#|----13----13----x--9-----9--11----11----x--13---(13\)----------------------|
C#|----x-----x-----x--x-----x--x-----x-----x--x-----x-------------------------|
G#|----11----11----x--7-----7--9-----9-----x--11---(11\)----------------------|
C#|---------------------------------------------------------------------------|

D#|---------------------------------------------------------------------------|
A#|---------------------------------------------------------------------------|
F#|----9-----9-----x--13-(13\)-9-----9-----x--x--11---------------------------|
C#|----x-----x-----x--x--------x-----x-----x--x--x----------------------------|  x2
G#|----7-----7-----x--11-(11\)-7-----7-----x--x--9----------------------------|
C#|---------------------------------------------------------------------------|

D#|---------------------------------------------------------------------------|
A#|----12----9-----7h-9p-7-----10-------9--------7----------------------------|
F#|-------9-----9-----------9-----9--9-----9--9-----9-------------------------|
C#|---------------------------------------------------------------------------|
G#|---------------------------------------------------------------------------|
C#|---------------------------------------------------------------------------|

D#|---------------------------------------------------------------------------|
A#|----12----9-----7h-9p-7-----------------9-----7h-9-------------------------|
F#|-------9-----9-----------9--8----------------------------------------------|
C#|-------------------------------9--9--9-----9-------------------------------|
G#|---------------------------------------------------------------------------|
C#|---------------------------------------------------------------------------|

D#|---------------------------------------------------------------------------|
A#|---------------------------------------------------------------------------|
F#|----16----16----------------14----14---------------------------------------|
C#|----x-----x-----------------x-----x----------------------------------------|
G#|----14----14----------------12----12---------------------------------------|
C#|---------------------------------------------------------------------------|





Bridge
1:47 - Lead/Rhythm
D#|-------------------0----/4-----2p-0----------------------------------------|
A#|-------------0----------------------4-----5--------------------------------|
F#|----1h-2--2----------------------------------------------------------------|
C#|-------------------------------------------------7-------------------------|
G#|-------------------------------------------------7-------------------------|
C#|-------------------------------------------------7-------------------------|

D#|---------------------------------------------------------------------------|
A#|---------------------------------------------------------------------------|
F#|---------------------------------------------------------------------------|
C#|-------7--7-----7--7--7-----7--7--7--7--7--7-------------------------------|
G#|-------7--7-----7--7--7-----7--7--7--7--7--7-------------------------------|
C#|-------7--7-----7--7--7-----7--7--7--7--7--7-------------------------------|

D#|-------------------0----/4-----2p-0----------------------------------------|
A#|-------------0----------------------4-----5--------------------------------|
F#|----1h-2--2----------------------------------------------------------------|
C#|-------------------------------------------------7-------------------------|
G#|-------------------------------------------------7-------------------------|
C#|-------------------------------------------------7-------------------------|

D#|---------------------------------------------------------------------------|
A#|---------------------------------------------------------------------------|
F#|---------------------------------------------------------------------------|
C#|-------7--7-----7--7--7-----7--7--7--7--7--7--7--2-------------------------|
G#|-------7--7-----7--7--7-----7--7--7--7--7--7--7--2-------------------------|
C#|-------7--7-----7--7--7-----7--7--7--7--7--7--7--2-------------------------|


1:57 - Rhythm
D#|---------------------------------------------------------------------------|
A#|---------------------------------------------------------------------------|
F#|---------------------------------------------------------------------------|
C#|-------2--2--2--2--2--2--2--2--2--2--2--2--2--2--7-------------------------|
G#|-------2--2--2--2--2--2--2--2--2--2--2--2--2--2--7-------------------------|
C#|-------2--2--2--2--2--2--2--2--2--2--2--2--2--2--7-------------------------|

D#|---------------------------------------------------------------------------|
A#|---------------------------------------------------------------------------|
F#|---------------------------------------------------------------------------|
C#|-------7--7--7-----7--7--7-----7--7--7-----7--7--2-------------------------|
G#|-------7--7--7-----7--7--7-----7--7--7-----7--7--2-------------------------|
C#|-------7--7--7-----7--7--7-----7--7--7-----7--7--2-------------------------|

D#|---------------------------------------------------------------------------|
A#|---------------------------------------------------------------------------|
F#|---------------------------------------------------------------------------|
C#|-------2--2--2--2--2--2--2--2--2--2--2--2--2--2--7-------------------------|
G#|-------2--2--2--2--2--2--2--2--2--2--2--2--2--2--7-------------------------|
C#|-------2--2--2--2--2--2--2--2--2--2--2--2--2--2--7-------------------------|

D#|---------------------------------------------------------------------------|
A#|---------------------------------------------------------------------------|
F#|---------------------------------------------------------------------------|
C#|-------7--7--7-----7--7--7-----7--7--7-----7--7--7-------------------------|
G#|-------7--7--7-----7--7--7-----7--7--7-----7--7--7-------------------------|
C#|-------7--7--7-----7--7--7-----7--7--7-----7--7--7-------------------------|

D#|---------------------------------------------------------------------------|
A#|---------------------------------------------------------------------------|
F#|---------------------------------------------------------------------------|
C#|----9--9--9--9--9--9--9--9--9--9--9--9--9--9--9--9-------------------------|
G#|----9--9--9--9--9--9--9--9--9--9--9--9--9--9--9--9-------------------------|
C#|----9--9--9--9--9--9--9--9--9--9--9--9--9--9--9--9-------------------------|

D#|---------------------------------------------------------------------------|
A#|---------------------------------------------------------------------------|
F#|----4--------9--------4--------4--4--4-------------------------------------|
C#|----4--------9--------4--------4--4--4--6--6-------------------------------|
G#|----4--------7--------2--------2--2--2--6--6-------------------------------|
C#|----------------------------------------6--6-------------------------------|


1:57 - Lead
D#|-------------------0----/4-----2p-0----------------------------------------|
A#|-------------0----------------------4-----5--------------------------------|
F#|--1----2--2----------------------------------------------------------------|
C#|---------------------------------------------------------------------------|  x2
G#|---------------------------------------------------------------------------|
C#|---------------------------------------------------------------------------|


1:57 - Lead 2
D#|---------------------------------------------------------------------------|
A#|---------------------------------------------------------------------------|
F#|--9----9--9--9--9--9--9--9--9--9--9--9--9--9--9--13------------------------|
C#|--x----x--x--x--x--x--x--x--x--x--x--x--x--x--x--x-------------------------|
G#|--7----7--7--7--7--7--7--7--7--7--7--7--7--7--7--11------------------------|
C#|---------------------------------------------------------------------------|

D#|---------------------------------------------------------------------------|
A#|---------------------------------------------------------------------------|
F#|-------13-13-13----13-13-13----13-13-13----13-13-9-------------------------|
C#|-------x--x--x-----x--x--x-----x--x--x-----x--x--x-------------------------|
G#|-------11-11-11----11-11-11----11-11-11----11-11-7-------------------------|
C#|---------------------------------------------------------------------------|

D#|---------------------------------------------------------------------------|
A#|---------------------------------------------------------------------------|
F#|--9----9--9--9--9--9--9--9--9--9--9--9--9--9--9--13------------------------|
C#|--x----x--x--x--x--x--x--x--x--x--x--x--x--x--x--x-------------------------|
G#|--7----7--7--7--7--7--7--7--7--7--7--7--7--7--7--11------------------------|
C#|---------------------------------------------------------------------------|

D#|---------------------------------------------------------------------------|
A#|---------------------------------------------------------------------------|
F#|-------13-13-13----13-13-13----13-13-13----13-13-13------------------------|
C#|-------x--x--x-----x--x--x-----x--x--x-----x--x--x-------------------------|
G#|-------11-11-11----11-11-11----11-11-11----11-11-11------------------------|
C#|---------------------------------------------------------------------------|

D#|---------------------------------------------------------------------------|
A#|---------------------------------------------------------------------------|
F#|----11-11-11-11-11-11-11-11-11-11-11-11-11-11-11-11------------------------|
C#|----x--x--x--x--x--x--x--x--x--x--x--x--x--x--x--x-------------------------|
G#|----9--9--9--9--9--9--9--9--9--9--9--9--9--9--9--9-------------------------|
C#|---------------------------------------------------------------------------|





Pre Chorus
2:13 - Rhythm 
D#|---------------------------------------------------------------------------|
A#|---------------------------------------------------------------------------|
F#|---------------------------------------------------------------------------|
C#|---------------------------------------------------------------------------|
G#|----7-----7-----x--7-----7--4-----4-----x--4-----4-------------------------|
C#|----7-----7-----x--7-----7--4-----4-----x--4-----4-------------------------|

D#|---------------------------------------------------------------------------|
A#|---------------------------------------------------------------------------|
F#|---------------------------------------------------------------------------|
C#|---------------------------------------------------------------------------|
G#|----2-----2-----x--2-----2--2-----2-----x--x--9\---------------------------|
C#|----2-----2-----x--2-----2--2-----2-----x--x--9\---------------------------|





Chorus
2:18 - Rhythm
D#|---------------------------------------------------------------------------|
A#|---------------------------------------------------------------------------|
F#|---------------------------------------------------------------------------|
C#|----7-----7-----x--7-----7--4-----4-----x--4-----4-------------------------|
G#|----7-----7-----x--7-----7--4-----4-----x--4-----4-------------------------|
C#|----7-----7-----x--7-----7--4-----4-----x--4-----4-------------------------|

D#|---------------------------------------------------------------------------|
A#|---------------------------------------------------------------------------|
F#|---------------------------------------------------------------------------|
C#|----2-----2-----x--2-----2--2-----2-----------2----------------------------|
G#|----2-----2-----x--2-----2--2-----2-----2--2--2----------------------------|
C#|----2-----2-----x--2-----2--2-----2-----2--2--2----------------------------|
                                           *  *
D#|---------------------------------------------------------------------------|
A#|---------------------------------------------------------------------------|
F#|---------------------------------------------------------------------------|
C#|----7-----7-----x--7-----7--4-----4-----x--4-----4-------------------------|
G#|----7-----7-----x--7-----7--4-----4-----x--4-----4-------------------------|
C#|----7-----7-----x--7-----7--4-----4-----x--4-----4-------------------------|

D#|---------------------------------------------------------------------------|
A#|---------------------------------------------------------------------------|
F#|---------------------------------------------------------------------------|
C#|----2-----2-----x--2-----2--2-----2-----4--4--4--4-------------------------|
G#|----2-----2-----x--2-----2--2-----2-----2--2--2--2-------------------------|
C#|----2-----2-----x--2-----2--2-----2-----2--2--2--2-------------------------|

D#|---------------------------------------------------------------------------|
A#|---------------------------------------------------------------------------|
F#|---------------------------------------------------------------------------|
C#|----7-----7-----x--7-----7--4-----4-----x--4-----4-------------------------|
G#|----7-----7-----x--7-----7--4-----4-----x--4-----4-------------------------|
C#|----7-----7-----x--7-----7--4-----4-----x--4-----4-------------------------|

D#|---------------------------------------------------------------------------|
A#|---------------------------------------------------------------------------|
F#|----6-----6-----x--6-----6--4-----4-----x--4-----4-------------------------|
C#|----6-----6-----x--6-----6--4-----4-----x--4-----4-------------------------|
G#|----4-----4-----x--4-----4--2-----2-----x--2-----2-------------------------|
C#|---------------------------------------------------------------------------|

D#|---------------------------------------------------------------------------|
A#|---------------------------------------------------------------------------|
F#|---------------------------------------------------------------------------|
C#|----7-----7-----------------4-----4----------------------------------------|
G#|----7-----7-----------------4-----4----------------------------------------|
C#|----7-----7-----------------4-----4----------------------------------------|

D#|---------------------------------------------------------------------------|
A#|---------------------------------------------------------------------------|
F#|---------------------------------------------------------------------------|
C#|----2----------------------------------------------------------------------|
G#|----2----------------------------------------------------------------------|
C#|----2----------------------------------------------------------------------|


2:18 - Lead
D#|---------------------------------------------------------------------------|
A#|---------------------------------------------------------------------------|
F#|----13----13----x--9-----9--11----11----x--13---(13\)----------------------|
C#|----x-----x-----x--x-----x--x-----x-----x--x-----x-------------------------|
G#|----11----11----x--7-----7--9-----9-----x--11---(11\)----------------------|
C#|---------------------------------------------------------------------------|

D#|---------------------------------------------------------------------------|
A#|---------------------------------------------------------------------------|
F#|----9-----9-----x--13-(13\)-9-----9-----x--x--11---------------------------|
C#|----x-----x-----x--x--------x-----x-----x--x--x----------------------------|  x2
G#|----7-----7-----x--11-(11\)-7-----7-----x--x--9----------------------------|
C#|---------------------------------------------------------------------------|

D#|---------------------------------------------------------------------------|
A#|----12----9-----7h-9p-7-----10-------9--------7----------------------------|
F#|-------9-----9-----------9-----9--9-----9--9-----9-------------------------|
C#|---------------------------------------------------------------------------|
G#|---------------------------------------------------------------------------|
C#|---------------------------------------------------------------------------|

D#|---------------------------------------------------------------------------|
A#|----12----9-----7h-9p-7-----------------9-----7h-9-------------------------|
F#|-------9-----9-----------9--8----------------------------------------------|
C#|-------------------------------9--9--9-----9-------------------------------|
G#|---------------------------------------------------------------------------|
C#|---------------------------------------------------------------------------|

D#|---------------------------------------------------------------------------|
A#|---------------------------------------------------------------------------|
F#|----16----16----------------14----14---------------------------------------|
C#|----x-----x-----------------x-----x----------------------------------------|
G#|----14----14----------------12----12---------------------------------------|
C#|---------------------------------------------------------------------------|

D#|---------------------------------------------------------------------------|
A#|---------------------------------------------------------------------------|
F#|----13---------------------------------------------------------------------|
C#|----x----------------------------------------------------------------------|
G#|----11---------------------------------------------------------------------|
C#|---------------------------------------------------------------------------|





************************************
| *   Palm mute
| x   Dead note
| g   Grace note
| (n) Ghost note
| h   Hammer-on
| p   Pull-off
| r   Release
| >   Accented note
| t   Tapping
| b   Bend
| br  Bend release
| pb  Pre-bend
| pbr Pre-bend release
| /   Slide up
| \   Slide down
| ~   Vibrato
| s   Slap
| P   Pop
| TR  Trill
| N   Tremolo

************************************

            
            
Suggest correction
Creating personal tab
Creating personal tab
You can edit any tab online and save it as your Personal.

You can edit, replace or remove any tab part or add personal notes – all changes will be seen only by you.

Personal tabs can be accessed anytime from any device, even offline.
Learn more »
Give kudos to tab author, rate the tab!
1 2 3 4 5
comments
print report bad tab
guest
You may want to rate the tab now too:
select rating
Wanna post a correction for this tab? Suggest correction