Oops, an error
Loading. Please wait.

Slow Burn tab

2,770 views 36 this week
no commentswrite comment
1 2 3 4 5
x 5
add to favorites
×
Save as Personal and add changes to this tab that will be seen only by you. Learn more ›
×
You can save this tab as Personal to edit and correct it or add notes. All changes will be seen only by you. Learn more »
launch autoscroll
font size
0
reset
how to read this tab
guitar tuner
edit
Autoscroll
slow
fast
+/-
esc
set tempo
stop
Check out my cover: https://www.youtube.com/watch?v=a38G4duhi6Y

[Intro]
D#|-------------------------------------------------------------------------------------------|
A#|-------------------------------------------------------------------------------------------|
F#|-16--16---16-16-16--18---13-13-13---13/14-14----16--16---16-16-16--18---13-13-13--11/9-9---|
C#|-------------------------------------------------------------------------------------------|
G#|-14--14---14-14-14--16---11-11-11---11/12-12----14--14---14-14-14--16---11-11-11---9/7-7---|
C#|-------------------------------------------------------------------------------------------|

D#|-------------------------------------------------------------------------------------------|
A#|-------------------------------------------------------------------------------------------|
F#|-16--16---16-16-16--18---13-13-13---13/14-14----16--16---16-16-16--18---13-13-13--11/9-9---|
C#|-------------------------------------------------------------------------------------------|
G#|-14--14---14-14-14--16---11-11-11---11/12-12----14--14---14-14-14--16---11-11-11---9/7-7---|
C#|-------------------------------------------------------------------------------------------|

[Verse 1]
D#|---------------------------------------------------------------------------|
A#|---------------------------------------------------------------------------|
F#|---------------------------------------------------------------------------|
C#|-2--2--2-2-2--2-2-2-----2--2--2-2-2--2-2-2---------------------------------|
G#|-0--0--0-0-0--0-0-0-----0--0--0-0-0--0-0-0----0--0--0-0-0--0-0-0-----------|
C#|----------------------------------------------0--0--0-0-0--0-0-0-----------|

D#|---------------------------------------------------------------------------|
A#|---------------------------------------------------------------------------|
F#|-16--16---16-16-16--18---13-13-13---13/14-14-------------------------------|
C#|---------------------------------------------------------------------------|
G#|-14--14---14-14-14--16---11-11-11---11/12-12-------------------------------|
C#|---------------------------------------------------------------------------|

D#|---------------7-----------------------------------------------------------|
A#|---10----10-------10---10--9/10--------10----10-------10---10--9/10--------|
F#|-9-----9----9--------9----------9----9-----9----9--------9----------9------|
C#|---------------------------------------------------------------------------|
G#|---------------------------------------------------------------------------|
C#|---------------------------------------------------------------------------|

D#|---------------7-----------------------------------------------------------------|
A#|---10----10-------10---10--9/10--------------------------------------------------|
F#|-9-----9----9--------9----------9--16--16---16-16-16--18---13-13-13---13/14-14---|
C#|---------------------------------------------------------------------------------|
G#|-----------------------------------14--14---14-14-14--16---11-11-11---11/12-12---|
C#|---------------------------------------------------------------------------------|

[Chorus]
D#|---------------------------------------------------------------------------|
A#|---------------------------------------------------------------------------|
F#|-2-2-2-2--2-2-2-2--2-2-2-2--6-6-6-6----------------------------------------|
C#|-2-2-2-2--2-2-2-2--2-2-2-2--7-7-7-7--0-0-0-0--0-0-0-0--0-0-0-0--0-0-0-0----|
G#|-0-0-0-0--0-0-0-0--0-0-0-0--4-4-4-4--0-0-0-0--0-0-0-0--0-0-0-0--0-0-0-0----|
C#|-------------------------------------0-0-0-0--0-0-0-0--0-0-0-0--0-0-0-0----|

D#|---------------------------------------------------------------------------|
A#|---------------------------------------------------------------------------|
F#|-2-2-2-2--2-2-2-2--2-2-2-2--6-6-6-6----------------------------------------|
C#|-2-2-2-2--2-2-2-2--2-2-2-2--7-7-7-7--0-0-0-0--0-0-0-0--0-0-0-0--0-0-0-0----|
G#|-0-0-0-0--0-0-0-0--0-0-0-0--4-4-4-4--0-0-0-0--0-0-0-0--0-0-0-0--0-0-0-0----|
C#|-------------------------------------0-0-0-0--0-0-0-0--0-0-0-0--0-0-0-0----|

D#|---------------------------------------------------------------------------|
A#|---------------------------------------------------------------------------|
F#|-11-11-11-11-11--14-14-14--9-9-9-9-9---9/11\9--7---7-7---7---7-7/9---------|
C#|---------------------------------------------------------------------------|
G#|--9--9--9--9--9--12-12-12--7-7-7-7-7---7/-9\7--5---5-5---5---5-5/7---------|
C#|---------------------------------------------------------------------------|

[Verse 2]
D#|---------------------------------------------------------------------------|
A#|---------------------------------------------------------------------------|
F#|-16--16---16-16-16--18---13-13-13---13/14-14-------------------------------|
C#|---------------------------------------------------------------------------|
G#|-14--14---14-14-14--16---11-11-11---11/12-12-------------------------------|
C#|---------------------------------------------------------------------------|

D#|---------------------------------------------------------------------------|
A#|---------------------------------------------------------------------------|
F#|---------------------------------------------------------------------------|
C#|-2--2--2-2-2--2-2-2-----2--2--2-2-2--2-2-2---------------------------------|
G#|-0--0--0-0-0--0-0-0-----0--0--0-0-0--0-0-0----0--0--0-0-0--0-0-0-----------|
C#|----------------------------------------------0--0--0-0-0--0-0-0-----------|

D#|---------------------------------------------------------------------------|
A#|---------------------------------------------------------------------------|
F#|-16--16---16-16-16--18---13-13-13---13/14-14-------------------------------|
C#|---------------------------------------------------------------------------|
G#|-14--14---14-14-14--16---11-11-11---11/12-12-------------------------------|
C#|---------------------------------------------------------------------------|

D#|---------------------------------------------------------------------------|
A#|---------------------------------------------------------------------------|
F#|---------------------------------------------------------------------------|
C#|-2--2--2-2-2--2--4-4-4---6-6--7\-------------------------------------------|
G#|-2--2--2-2-2--2--4-4-4---6-6--7\-------------------------------------------|
C#|-2--2--2-2-2--2--4-4-4---6-6--7\-------------------------------------------|

[Chorus]
D#|---------------------------------------------------------------------------|
A#|---------------------------------------------------------------------------|
F#|-2-2-2-2--2-2-2-2--2-2-2-2--6-6-6-6----------------------------------------|
C#|-2-2-2-2--2-2-2-2--2-2-2-2--7-7-7-7--0-0-0-0--0-0-0-0--0-0-0-0--0-0-0-0----|
G#|-0-0-0-0--0-0-0-0--0-0-0-0--4-4-4-4--0-0-0-0--0-0-0-0--0-0-0-0--0-0-0-0----|
C#|-------------------------------------0-0-0-0--0-0-0-0--0-0-0-0--0-0-0-0----|

D#|---------------------------------------------------------------------------|
A#|---------------------------------------------------------------------------|
F#|-2-2-2-2--2-2-2-2--2-2-2-2--6-6-6-6----------------------------------------|
C#|-2-2-2-2--2-2-2-2--2-2-2-2--7-7-7-7--0-0-0-0--0-0-0-0--0-0-0-0--0-0-0-0----|
G#|-0-0-0-0--0-0-0-0--0-0-0-0--4-4-4-4--0-0-0-0--0-0-0-0--0-0-0-0--0-0-0-0----|
C#|-------------------------------------0-0-0-0--0-0-0-0--0-0-0-0--0-0-0-0----|

D#|---------------------------------------------------------------------------|
A#|---------------------------------------------------------------------------|
F#|-11-11-11-11-11--14-14-14--9-9-9-9-9---9/11\9--7---7-7---7---7-7/9---------|
C#|---------------------------------------------------------------------------|
G#|--9--9--9--9--9--12-12-12--7-7-7-7-7---7/-9\7--5---5-5---5---5-5/7---------|
C#|---------------------------------------------------------------------------|

[Bridge]
D#|---------------------------------------------------------------------------|
A#|---------5----------------------------5-----------------0------------------|
F#|------------6----------------------7-------7-------------------------------|
C#|------7-------------------------7------------7-------7---------------------|
G#|----4------------------------0-----------------0---------------------------|
C#|--4-----------------------0------------------------0-----------------------|

D#|---------------------------------------------------------------------------|
A#|---------5----------------------------5-----------------0------------------|
F#|------------6----------------------7-------7-------------------------------|
C#|------7-------------------------7------------7-------7---------------------|
G#|----4------------------------0-----------------0---------------------------|
C#|--4-----------------------0------------------------0-----------------------|

D#|---------------------------------------------------------------------------|
A#|---------5----------------------------5-----------------0------------------|
F#|------------6----------------------7-------7-------------------------------|
C#|------7-------------------------7------------7-------7---------------------|
G#|----4------------------------0-----------------0---------------------------|
C#|--4-----------------------0------------------------0-----------------------|

D#|---------------------------------------------------------------------------|
A#|---------------------------------------------------------------------------|
F#|---------------------------------------------------------------------------|
C#|-4-4-4--4-4---4-4--4-4--7-7-7---0-0-0--0--0--0--0--0--2-2-2----------------|
G#|-4-4-4--4-4---4-4--4-4--7-7-7---0-0-0--0--0--0--0--0--2-2-2----------------|
C#|-4-4-4--4-4---4-4--4-4--7-7-7---0-0-0--0--0--0--0--0--2-2-2----------------|

D#|---------------------------------------------------------------------------|
A#|---------------------------------------------------------------------------|
F#|---------------------------------------------------------------------------|
C#|-4-4-4--4-4---4-4--4-4--7-7-7---0--0--0-0-0--0-0-0--0-0-0--0-0-0-----------|
G#|-4-4-4--4-4---4-4--4-4--7-7-7---0--0--0-0-0--0-0-0--0-0-0--0-0-0-----------|
C#|-4-4-4--4-4---4-4--4-4--7-7-7---0--0--0-0-0--0-0-0--0-0-0--0-0-0--2\-------|

[Chorus]
D#|---------------------------------------------------------------------------|
A#|---------------------------------------------------------------------------|
F#|-2-2-2-2--2-2-2-2--2-2-2-2--6-6-6-6----------------------------------------|
C#|-2-2-2-2--2-2-2-2--2-2-2-2--7-7-7-7--0-0-0-0--0-0-0-0--0-0-0-0--0-0-0-0----|
G#|-0-0-0-0--0-0-0-0--0-0-0-0--4-4-4-4--0-0-0-0--0-0-0-0--0-0-0-0--0-0-0-0----|
C#|-------------------------------------0-0-0-0--0-0-0-0--0-0-0-0--0-0-0-0----|

D#|---------------------------------------------------------------------------|
A#|---------------------------------------------------------------------------|
F#|-2-2-2-2--2-2-2-2--2-2-2-2--6-6-6-6----------------------------------------|
C#|-2-2-2-2--2-2-2-2--2-2-2-2--7-7-7-7--0-0-0-0--0-0-0-0--0-0-0-0--0-0-0-0----|
G#|-0-0-0-0--0-0-0-0--0-0-0-0--4-4-4-4--0-0-0-0--0-0-0-0--0-0-0-0--0-0-0-0----|
C#|-------------------------------------0-0-0-0--0-0-0-0--0-0-0-0--0-0-0-0----|

D#|---------------------------------------------------------------------------------------|
A#|---------------------------------------------------------------------------------------|
F#|-11-11-11-11-11--14-14-14--9-9-9-9-9---9/11\9--7---7-7---7---7-7-11-11-11-11-9-9-9-9---|
C#|---------------------------------------------------------------------------------------|
G#|--9--9--9--9--9--12-12-12--7-7-7-7-7---7/-9\7--5---5-5---5---5-5-9--9--9--9--7-7-7-7---|
C#|---------------------------------------------------------------------------------------|

[Outro]
D#|-/17-17-17-17-17-17--14-17-14----------------------17-17-17-----------17-17-17---17\---|
A#|------------------------------17--14-14-14-14-14------------14-14-14-------------------|
F#|---------------------------------------------------------------------------------------|
C#|---------------------------------------------------------------------------------------|
G#|---------------------------------------------------------------------------------------|
C#|---------------------------------------------------------------------------------------|

D#|----------------------------------------------------------------------------|
A#|----------------------------------------------------------------------------|
F#|-16--16---16-16-16--18---13-13-13---13/14-14----16--16---16-16-16--18\------|
C#|----------------------------------------------------------------------------|
G#|-14--14---14-14-14--16---11-11-11---11/12-12----14--14---14-14-14--16\------|
C#|----------------------------------------------------------------------------|


************************************

| /   Slide up
| \   Slide down

************************************

            
            
Suggest correction
Creating personal tab
Creating personal tab
You can edit any tab online and save it as your Personal.

You can edit, replace or remove any tab part or add personal notes – all changes will be seen only by you.

Personal tabs can be accessed anytime from any device, even offline.
Learn more »
comments
print report bad tab
guest
You may want to rate the tab now too:
select rating
Wanna post a correction for this tab? Suggest correction