Oops, an error
Loading. Please wait.

Amalgamation tab

971 views 1 this week
no commentswrite comment
1 2 3 4 5
2 more votes to show rating
add to favorites
×
Save as Personal and add changes to this tab that will be seen only by you. Learn more ›
×
You can save this tab as Personal to edit and correct it or add notes. All changes will be seen only by you. Learn more »
launch autoscroll
font size
0
reset
how to read this tab
guitar tuner
edit
Autoscroll
slow
fast
+/-
esc
set tempo
stop
Difficulty
intermediate
Tuning: Standard

There are two guitars in this song, this tab is a combination of both of them.

I've done the rhythm as best as I can, listen to the song to hear exactly how it sounds.

e|4t------5t------12t-----9t-------------------------------------|
B|---------------------------------------------------------------|
G|---------------------------------------------------------------|
D|---------------------------------------------------------------|
A|---------------------------------------------------------------|
E|---------------------------------------------------------------|



e|4t------5t------12t-----9t-------------------------------------|
B|---------------------------------------------------------------|
G|---------------------------------------------------------------|
D|---------------------------------------------------------------|
A|---------------------------------------------------------------|
E|---------------------------------------------------------------|


e|4t------5t------12------9--------------------------------------|
B|---------------------------------------------------------------|
G|---------------------------------------------------------------|
D|---------------------------------------------------------------|
A|---------------------------------------------------------------|
E|---------------------------------------------------------------|


e|4-------5-------9-------7--------------------------------------|
B|2-------2-------7-------7--------------------------------------|
G|2-------2-------7-------7--------------------------------------|
D|---------------------------------------------------------------|
A|---------------------------------------------------------------|
E|---------------------------------------------------------------|


e|4-------5-------9-------7------12-14-12-14---------------------|
B|2-------2-------7-------7--------------------------------------|
G|2-------2-------7-------7--------------------------------------|
D|---------------------------------------------------------------|
A|---------------------------------------------------------------|
E|---------------------------------------------------------------|



e|4-------5-------9-------7--------------------------------------|
B|2-------2-------7-------7--------------------------------------|
G|2-------2-------7-------7--------------------------------------|
D|---------------------------------------------------------------|
A|---------------------------------------------------------------|
E|---------------------------------------------------------------|

                                 |---3---|
e|4-------5-------9-------7------12-14-12----12-14-12-14---------|
B|2-------2-------7-------7---------------14---------------------|
G|2-------2-------7-------7--------------------------------------|
D|---------------------------------------------------------------|
A|---------------------------------------------------------------|
E|---------------------------------------------------------------|

e|-------------------------------12-14---------------------------|
B|5b-7-5b-7--10-7-12b-10-12b-10----------------------------------|
G|---------------------------------------------------------------|
D|---------------------------------------------------------------|
A|---------------------------------------------------------------|
E|---------------------------------------------------------------|

e|-------------------------------12-14---------------------------|
B|5b-7-5b-7--10-7-12b-10-12b-10----------------------------------|
G|---------------------------------------------------------------|
D|---------------------------------------------------------------|
A|---------------------------------------------------------------|
E|---------------------------------------------------------------|


e|-------------------------------12-14---------------------------|
B|5b-7-5b-7--10-7-12b-10-12b-10----------------------------------|
G|---------------------------------------------------------------|
D|---------------------------------------------------------------|
A|---------------------------------------------------------------|
E|---------------------------------------------------------------|

e|---------------------------------------------------------------|
B|5b-7-5b-7--10-7-12b-10-12b-10----------------------------------|
G|---------------------------------------------------------------|
D|---------------------------------------------------------------|
A|---------------------------------------------------------------|
E|---------------------------------------------------------------|


e|9--9--9-7--7--7-7--7--7-5--5--5-5--5--5-4--4--4-4--4--4-2--2--2--|
B|-7--7--7-7--7--7-5--5--5-5--5--5-3--3--3-3--3--3-2--2--2-2--2--2-|
G|--7--7----7--7----6--6----6--6----4--4----4--4----2--2----2--2---|
D|-----------------------------------------------------------------|
A|-----------------------------------------------------------------|
E|-----------------------------------------------------------------|


e|9--9--9-7--7--7-7--7--7-5--5--5-5--5--5-4--4--4-4--4--4-2--2--2--|
B|-7--7--7-7--7--7-5--5--5-5--5--5-3--3--3-3--3--3-2--2--2-2--2--2-|
G|--7--7----7--7----6--6----6--6----4--4----4--4----2--2----2--2---|
D|-----------------------------------------------------------------|
A|-----------------------------------------------------------------|
E|-----------------------------------------------------------------|

e|9--9--9-7--7--7-7--7--7-5--5--5-5--5--5-4--4--4-4--4--4-2--2--2--|
B|7--7--7-7--7--7-5--5--5-5--5--5-3--3--3-3--3--3-2--2--2-2--2--2--|
G|7--7--7-7--7--7-6--6--6-6--6--6-4--4--4-4--4--4-2--2--2-2--2--2--|
D|-----------------------------------------------------------------|
A|-----------------------------------------------------------------|
E|-----------------------------------------------------------------|


e|9--9--9-7--7--7-7--7--7-5--5--5-5--5--5-4--4--4-4--4--4-2--2--2--|
B|7--7--7-7--7--7-5--5--5-5--5--5-3--3--3-3--3--3-2--2--2-2--2--2--|
G|7--7--7-7--7--7-6--6--6-6--6--6-4--4--4-4--4--4-2--2--2-2--2--2--|
D|-----------------------------------------------------------------|
A|-----------------------------------------------------------------|
E|-----------------------------------------------------------------|


e|4-------5-------9-------7--------------------------------------|
B|2-------2-------7-------7--------------------------------------|
G|2-------2-------7-------7--------------------------------------|
D|---------------------------------------------------------------|
A|---------------------------------------------------------------|
E|---------------------------------------------------------------|

                                 |---3---|
e|4-------5-------9-------7------12-14-12----12-14-12-14---------|
B|2-------2-------7-------7---------------14---------------------|
G|2-------2-------7-------7--------------------------------------|
D|---------------------------------------------------------------|
A|---------------------------------------------------------------|
E|---------------------------------------------------------------|



e|---------------------------------------------------------------|
B|5b-----7--------12b-----10-------------------------------------|
G|---------------------------------------------------------------|
D|---------------------------------------------------------------|
A|---------------------------------------------------------------|
E|---------------------------------------------------------------|



e|---------------------------------------------------------------|
B|5b-----7--------12b-----10-------------------------------------|
G|---------------------------------------------------------------|
D|---------------------------------------------------------------|
A|---------------------------------------------------------------|
E|---------------------------------------------------------------|



e|---------------------------------------------------------------|
B|5b-----7--------12b-----10-------------------------------------|
G|---------------------------------------------------------------|
D|---------------------------------------------------------------|
A|---------------------------------------------------------------|
E|---------------------------------------------------------------|

                                  |---3---||---3---||---3---|
e|--------------------------------12-14-12-12-14-16-12-14-12-----|
B|5b-----7--------12b-----10-------------------------------------|
G|---------------------------------------------------------------|
D|---------------------------------------------------------------|
A|---------------------------------------------------------------|
E|---------------------------------------------------------------|



e|---------------------------------------------------------------|
B|5b-----7--------12b-----10-------------------------------------|
G|---------------------------------------------------------------|
D|---------------------------------------------------------------|
A|---------------------------------------------------------------|
E|---------------------------------------------------------------|



e|---------------------------------------------------------------|
B|5b-----7--------12b-----10-------------------------------------|
G|---------------------------------------------------------------|
D|---------------------------------------------------------------|
A|---------------------------------------------------------------|
E|---------------------------------------------------------------|


e|---------------------------------------------------------------|
B|5b-----7--------12b-----10-------------------------------------|
G|---------------------------------------------------------------|
D|---------------------------------------------------------------|
A|---------------------------------------------------------------|
E|---------------------------------------------------------------|

                                 |---3---|
e|-------------------------------12-14-12----12-14-12-14---------|
B|5b-----7--------12b-----10--------------14---------------------|
G|---------------------------------------------------------------|
D|---------------------------------------------------------------|
A|---------------------------------------------------------------|
E|---------------------------------------------------------------|


e|---------------------------------------------------------------|
B|5b-----7--------12b-----10-----7-------------------------------|
G|---------------------------------------------------------------|
D|---------------------------------------------------------------|
A|---------------------------------------------------------------|
E|---------------------------------------------------------------|

| b  bend
| t  tremolo pick
| |-3-|  triplet

            
            
Suggest correction
Creating personal tab
Creating personal tab
You can edit any tab online and save it as your Personal.

You can edit, replace or remove any tab part or add personal notes – all changes will be seen only by you.

Personal tabs can be accessed anytime from any device, even offline.
Learn more »
Give kudos to tab author, rate the tab!
1 2 3 4 5
comments
print report bad tab
guest
Wanna post a correction for this tab? Suggest correction