Oops, an error
Loading. Please wait.

Asleep tab

version 2
version 2

Whole song

by States
2,279 views 6 this week
3 commentsread comments
1 2 3 4 5
x 6
add to favorites
×
Save as Personal and add changes to this tab that will be seen only by you. Learn more ›
×
You can save this tab as Personal to edit and correct it or add notes. All changes will be seen only by you. Learn more »
launch autoscroll
font size
0
reset
how to read this tab
guitar tuner
edit
Autoscroll
slow
fast
+/-
esc
set tempo
stop
Hey everyone,

This is one of the great songs from the new band called States. States is a band that 
consists of vocalist Mindy White (formerly of band Lydia) and Bryan and Stephen Laurenson 
(former members of Copeland).

To play this tab in the proper key, you'll need a capo on the first fret with the 
strings (without the capo) in standard tuning. I find that this is the simplest way to play 
this awesome song. I hope you all enjoy!

TUNING: STANDARD + CAPO 1

Intro/Verse
Capo 1
E|-----------------------------------------------------------------|
B|-------3---1---0-------0---------------0---------------0---1-----|
G|---0---------------0-------0---0---0-------0---0---0-----------0-| (3x)
D|-----------------2---2---2---2---2---2---2---2---3---3---3---3---|
A|-3---3---3---3---------------------------------------------------|
E|-----------------------------------------------------------------|
Capo 1
E|-----------------------------------------------------------------|
B|-------3---1---0-------0---------------0-------------------------|
G|---0---------------0-------0---0---0-------0---0---0---0---0---0-| (1x)
D|-----------------2---2---2---2---2---2---2---2---3---3---3---3---|
A|-3---3---3---3---------------------------------------------------|
E|-----------------------------------------------------------------|

                          Prechorus
Capo 1
E|-------0-------------------------------------------------------|
B|---1--------3------------------------------------------0-------|
G|-----------------------0---2---0-----2---0---------0-------0---|
D|---------------------------------------------------------------|
A|-0---0---0-----------------------------------3-----------------|
E|---------------------0---0---0-----1---1---1-----3---3---3-----|
Capo 1
E|-------0-------------------------------------------------------|
B|---1--------3--------------------------------------0---0---0---|
G|-------------------0---2---0-----2---0---------0-----0---0---0-|
D|---------------------------------------------------------------|
A|-0---0---0-------------------------------3---------------------|
E|-----------------0---0---0-----1---1---1-----3---3----3---3---3|

                           Chorus
Capo 1
E|-----------------------------------------------------------------|
B|-------3---1---0-------0---------------0---------------0---1-----|
G|---0---------------0-------0---0---0-------0---0---0-----------0-| (3x)
D|-----------------2---2---2---2---2---2---2---2---3---3---3---3---|
A|-3---3---3---3---------------------------------------------------|
E|-----------------------------------------------------------------|
Capo 1
E|-----------------------------------------------------------------|
B|-------3---1---0-------0---------------0-------------------------|
G|---0---------------0-------0---0---0-------0---0---0---0---0---0-| (1x)
D|-----------------2---2---2---2---2---2---2---2---3---3---3---3---|
A|-3---3---3---3---------------------------------------------------|
E|-----------------------------------------------------------------|
                    Back to Intro/Verse
Capo 1
E|-----------------------------------------------------------------|
B|-------3---1---0-------0---------------0---------------0---1-----|
G|---0---------------0-------0---0---0-------0---0---0-----------0-| (3x)
D|-----------------2---2---2---2---2---2---2---2---3---3---3---3---|
A|-3---3---3---3---------------------------------------------------|
E|-----------------------------------------------------------------|
Capo 1
E|-----------------------------------------------------------------|
B|-------3---1---0-------0---------------0-------------------------|
G|---0---------------0-------0---0---0-------0---0---0---0---0---0-| (1x)
D|-----------------2---2---2---2---2---2---2---2---3---3---3---3---|
A|-3---3---3---3---------------------------------------------------|
E|-----------------------------------------------------------------|

                         Prechorus
Capo 1
E|-------0-------------------------------------------------------|
B|---1--------3------------------------------------------0-------|
G|-----------------------0---2---0-----2---0---------0-------0---|
D|---------------------------------------------------------------|
A|-0---0---0-----------------------------------3-----------------|
E|---------------------0---0---0-----1---1---1-----3---3---3-----|
Capo 1
E|-------0-------------------------------------------------------|
B|---1--------3--------------------------------------0---0---0---|
G|-------------------0---2---0-----2---0---------0-----0---0---0-|
D|---------------------------------------------------------------|
A|-0---0---0-------------------------------3---------------------|
E|-----------------0---0---0-----1---1---1-----3---3----3---3---3|

                         Chorus 2
Capo 1
E|-----------------------------------------------------------------|
B|-------3---1---0-------0---------------0---------------0---1-----|
G|---0---------------0-------0---0---0-------0---0---0-----------0-| (3x)
D|-----------------2---2---2---2---2---2---2---2---3---3---3---3---|
A|-3---3---3---3---------------------------------------------------|
E|-----------------------------------------------------------------|
Capo 1
E|-----------------------------------------------------------------|
B|-------3---1---0-------0---------------0-------------------------|
G|---0---------------0-------0---0---0-------0---0---0---0---0---0-| (1x)
D|-----------------2---2---2---2---2---2---2---2---3---3---3---3---|
A|-3---3---3---3---------------------------------------------------|
E|-----------------------------------------------------------------|

                         Bridge
Capo 1
E|-------3---1-----------------------0-------------------|
B|---------------------3---------1-------1---------3-----|
G|---2-------------4-------4-------------------0-------0-|
D|-------------------------------------------------------|
A|-----------------------------0---0---0-----------------|
E|-1---1---1-----3---3---3-------------------0---0---0---|
Capo 1
E|-------3---1-----------------------0-------------------|
B|---------------------3---------1-------1---------3-----|
G|---2-------------4-------4-------------------4---------|
D|-------------------------------------------------------|
A|-----------------------------0---0---0-----------------|
E|-1---1---1-----3---3---3-------------------3---3-------|

                         Outro
Capo 1
E|-----------------------------------------------------------------|
B|-------3---1---0-------0---------------0---------------0---1-----|
G|---0---------------0-------0---0---0-------0---0---0-----------0-| (3x)
D|-----------------2---2---2---2---2---2---2---2---3---3---3---3---|
A|-3---3---3---3---------------------------------------------------|
E|-----------------------------------------------------------------|
Capo 1
E|-----------------------------------------------------------------|
B|-------3---1---0-------0---------------0-------------------------|
G|---0---------------0-------0---0---0-------0---0---0---0---0---0-| (1x)
D|-----------------2---2---2---2---2---2---2---2---3---3---3---3---|
A|-3---3---3---3---------------------------------------------------|
E|-----------------------------------------------------------------|

Thanks for viewing! Also, a shout out to UG user "Chris Bradley (Ferrets!)" for being 
the first to tab this song. I transposed this based on his tabs. If you don't have a capo, 
his is in half-step down tuning.

Take care!

- J-Priceless

            
            
Suggest correction
Creating personal tab
Creating personal tab
You can edit any tab online and save it as your Personal.

You can edit, replace or remove any tab part or add personal notes – all changes will be seen only by you.

Personal tabs can be accessed anytime from any device, even offline.
Learn more »
comments
print report bad tab
3 comments total.
0 reply
risetovotesir 10 Feb 02, 2011 03:13 PM

Wow! So perfectly simple! Nice...

0 reply
1EandA 10 Feb 02, 2011 03:16 PM

I've been looking for the best way to play this song. thanks for this.

0 reply
QuantumMechanix 306 Nov 11, 2011 10:34 AM

Beautiful. I think the chords to go along with it are:

Verse : C, Em, Fsus
Chorus: Am, Em, Fsus

guest
You may want to rate the tab now too:
select rating
Wanna post a correction for this tab? Suggest correction