Oops, an error
Loading. Please wait.
We have an official Cold tab made by UG professional guitarists. Check out the tab »
×
2,802 views 6 this week
no commentswrite comment
1 2 3 4 5
2 more votes to show rating
add to favorites
×
Save as Personal and add changes to this tab that will be seen only by you. Learn more ›
×
You can save this tab as Personal to edit and correct it or add notes. All changes will be seen only by you. Learn more »
launch autoscroll
font size
0
reset
how to read this tab
guitar tuner
edit
Autoscroll
slow
fast
+/-
esc
set tempo
stop
Difficulty
cold by static x

this is my first tab and its really easy.


   [C G C F A D]


this song its really easy to play, it has just two parts:

part 1:

6--------------------------------------|
5--------------------------------------|
4--------------------------------------|
3--0---0----X----0----0--0---0----X----|
2--0---0----X----0----0--0---0----X----|
1--0---0----X----0----0--0---0----X----|

and part 2:

6---------------------------------------|
5---------------------------------------|
4-----7-----9-10--13-12--/--5-----------|
3-----x-----x-x---x--x---/--x-----------|
2-----5-----7-8---11-10--/--3-----------|
1---------------------------------------|

variation in the end

6--------------------------------------|
5--------------------------------------|
4-----7-----9-10--13-12--/-------------|
3-----x-----x-x---x--x---/-------------|
2-----5-----7-8---11-10--/-------------|
1--------------------------------------|


i think this song has two guitars, this is all what the second does in the first part :


6--------------------------------------|
5--------------------------------------|
4--------------------------------------|
3--------------------------------------|
2--5---5----X----5----5--5---5----X----|
1--0---0----x----0----0--0---0----x----|

in the second part plays the same as the guitar 1.


:01-49
GUITAR 1 ( HEAVY DISTORTION)
6--------------------------------------|
5--------------------------------------|
4--------------------------------------|    X16
3--0---0----X----0----0--0---0----X----|
2--0---0----X----0----0--0---0----X----|
1--0---0----X----0----0--0---0----X----|
 :50-
6------------------------------------------|
5------------------------------------------|
4-----7-----9-10--13-12--/--5--------------|    x3
3-----x-----x-x---x--x---/--x--------------|
2-----5-----7-8---11-10--/--3--------------|
1------------------------------------------|


6--------------------------------------|
5--------------------------------------|
4-----7-----9-10--13-12--/-------------|
3-----x-----x-x---x--x---/-------------|
2-----5-----7-8---11-10--/-------------|
1--------------------------------------|

1:16--1:41
6--------------------------------------|
5--------------------------------------|
4--------------------------------------|    X8
3--0---0----X----0----0--0---0----X----|
2--0---0----X----0----0--0---0----X----|
1--0---0----X----0----0--0---0----X----|

1:42-2:06
6------------------------------------------|
5------------------------------------------|
4-----7-----9-10--13-12--/--5--------------|    x3
3-----x-----x-x---x--x---/--x--------------|
2-----5-----7-8---11-10--/--3--------------|
1------------------------------------------|


6--------------------------------------|
5--------------------------------------|
4-----7-----9-10--13-12--/-------------|
3-----x-----x-x---x--x---/-------------|
2-----5-----7-8---11-10--/-------------|
1--------------------------------------|

2:07-2:19
6--------------------------------------|
5--------------------------------------|
4--------------------------------------|    X4
3--0---0----X----0----0--0---0----X----|
2--0---0----X----0----0--0---0----X----|
1--0---0----X----0----0--0---0----X----|

2:19-2:32
6-----------------#--------------------|
5-----------------r--------------------|
4-----------------e--------------------|
3-----------------s--------------------|
2-----------------t--------------------|
1-----------------#--------------------|

2:33- 3:23
6------------------------------------------|
5------------------------------------------|
4-----7-----9-10--13-12--/--5--------------|    x3
3-----x-----x-x---x--x---/--x--------------|
2-----5-----7-8---11-10--/--3--------------|
1------------------------------------------|


6--------------------------------------|
5--------------------------------------|
4-----7-----9-10--13-12--/-------------|
3-----x-----x-x---x--x---/-------------|
2-----5-----7-8---11-10--/-------------|
1--------------------------------------|


6------------------------------------------|
5------------------------------------------|
4-----7-----9-10--13-12--/--5--------------|    x3
3-----x-----x-x---x--x---/--x--------------|
2-----5-----7-8---11-10--/--3--------------|
1------------------------------------------|


6--------------------------------------|
5--------------------------------------|
4-----7-----9-10--13-12--/-------------|
3-----x-----x-x---x--x---/-------------|
2-----5-----7-8---11-10--/-------------|
1--------------------------------------|

3:24 -3:37

6--------------------------------------|
5--------------------------------------|
4--------------------------------------|    X4
3--0---0----X----0----0--0---0----X----|
2--0---0----X----0----0--0---0----X----|
1--0---0----X----0----0--0---0----X----|

enjoy it!!!!! any question or comment at this  e-mail, mahp_lestat_@hotmail.com

je esta rola esta facil y suena a toda madre.
la saque pensando en mi compa el bola [(el chino) el que me enseno a tocar la 
otros mas.
saludones

            
            
Suggest correction
Creating personal tab
Creating personal tab
You can edit any tab online and save it as your Personal.

You can edit, replace or remove any tab part or add personal notes – all changes will be seen only by you.

Personal tabs can be accessed anytime from any device, even offline.
Learn more »
Give kudos to tab author, rate the tab!
1 2 3 4 5
comments
print report bad tab
guest
Wanna post a correction for this tab? Suggest correction