Oops, an error
Loading. Please wait.
We have an official Im With Stupid tab made by UG professional guitarists. Check out the tab »
×
547 views 1 this week
no commentswrite comment
1 2 3 4 5
3 more votes to show rating
add to favorites
×
Save as Personal and add changes to this tab that will be seen only by you. Learn more ›
×
You can save this tab as Personal to edit and correct it or add notes. All changes will be seen only by you. Learn more »
launch autoscroll
font size
0
reset
how to read this tab
guitar tuner
edit
Autoscroll
slow
fast
+/-
esc
set tempo
stop
Static-X Im With Stupid G tab tuning drop-C 

Intro
D|-------------------------------------------------|
A|-------------------------------------------------|
F|-------------------------------------------------|
C|-------------------------------------------------| x4
G|-------------------------------------------------|
C|-00-00-0-00-00-0-00-00-000-13~~------------------|

Chorus
D|-------------------------------------------------------|
A|-------------------------------------------------------|
F|-------------------------------------------------------|
C|-------------------------------------------------------| x2
G|-0-0--0-0---0---0-0--0-0---0---0-0--0-0---0---0-0-1~~--|
C|-0-0--0-0---0---0-0--0-0---0---0-0--0-0---0---0-0-1~~--|
PM ................................................
Same beat as the intro.

Verse
D|------------------------------------------------------|
A|------------------------------------------------------|
F|------------------------------------------------------|
C|-1-0--0---1-0--0--1-0--0---1-0------------------------| x3
G|-1-0--0---1-0--0--1-0--0---1-0------------------------|
C|-1-0--0---1-0--0--1-0--0---1-0------------------------|


D|-------------------------------------------------|
A|-------------------------------------------------|
F|-------------------------------------------------|
C|-------------------------------------------------| x1
G|-x\\\\\\\\\\\\\\\\\\\\\\\------------------------|
C|-x\\\\\\\\\\\\\\\\\\\\\\\------------------------|
pick slide from pickups to the neck

Chorus
D|------------------------------------------------------------------------|
A|------------------------------------------------------------------------|
F|------------------------------------------------------------------------|
C|------------------------------------------------------------------------| 
G|-1-1--1-1---1---1-1--1-1---1---1-1--1-1---1---1-1-2~~-------------------|
C|-1-1--1-1---1---1-1--1-1---1---1-1--1-1---1---1-1-2~~-------------------x4
PM ................................................

Intro
D|-------------------------------------------------|
A|-------------------------------------------------|
F|-------------------------------------------------|
C|-------------------------------------------------| x4
G|-------------------------------------------------|
C|-00-00-0-00-00-0-00-00-000-13~~------------------|

Verse
D|------------------------------------------------------|
A|------------------------------------------------------|
F|------------------------------------------------------|
C|-1-0--0---1-0--0--1-0--0---1-0------------------------| x4
G|-1-0--0---1-0--0--1-0--0---1-0------------------------|
C|-1-0--0---1-0--0--1-0--0---1-0------------------------|

Chorus
D|------------------------------------------------------------------------|
A|------------------------------------------------------------------------|
F|------------------------------------------------------------------------|
C|------------------------------------------------------------------------| 
G|-1-1--1-1---1---1-1--1-1---1---1-1--1-1---1---1-1-2~~-------------------|
C|-1-1--1-1---1---1-1--1-1---1---1-1--1-1---1---1-1-2~~-------------------x4
PM ................................................

Intro
D|-------------------------------------------------|
A|-------------------------------------------------|
F|-------------------------------------------------|
C|-------------------------------------------------| x4
G|-------------------------------------------------|
C|-00-00-0-00-00-0-00-00-000-13~~------------------|

Then there is a break here where Wayne is saying stupid with some weird lady saying 
about a shovel. Then it goes to this.

Chorus
D|------------------------------------------------------------------------|
A|------------------------------------------------------------------------|
F|------------------------------------------------------------------------|
C|------------------------------------------------------------------------| 
G|-1-1--1-1---1---1-1--1-1---1---1-1--1-1---1---1-1-2~~-------------------|
C|-1-1--1-1---1---1-1--1-1---1---1-1--1-1---1---1-1-2~~-------------------x4
PM ................................................

Another break With strange sounds.

Intro
D|-------------------------------------------------|
A|-------------------------------------------------|
F|-------------------------------------------------|
C|-------------------------------------------------| x4
G|-------------------------------------------------|
C|-00-00-0-00-00-0-00-00-000-13~~------------------|

Verse
D|------------------------------------------------------|
A|------------------------------------------------------|
F|------------------------------------------------------|
C|-1-0--0---1-0--0--1-0--0---1-0------------------------| x4
G|-1-0--0---1-0--0--1-0--0---1-0------------------------|
C|-1-0--0---1-0--0--1-0--0---1-0------------------------|

THE END

            
            
Suggest correction
Creating personal tab
Creating personal tab
You can edit any tab online and save it as your Personal.

You can edit, replace or remove any tab part or add personal notes – all changes will be seen only by you.

Personal tabs can be accessed anytime from any device, even offline.
Learn more »
Give kudos to tab author, rate the tab!
1 2 3 4 5
comments
print report bad tab
guest
You may want to rate the tab now too:
select rating
Wanna post a correction for this tab? Suggest correction