Oops, an error
Loading. Please wait.

Skinnyman tab

version 2
version 2

Whole song

Interactive

1,604 views 3 this week
1 commentread comment
1 2 3 4 5
2 more votes to show rating
add to favorites
×
Save as Personal and add changes to this tab that will be seen only by you. Learn more ›
×
You can save this tab as Personal to edit and correct it or add notes. All changes will be seen only by you. Learn more »
launch autoscroll
font size
0
reset
how to read this tab
guitar tuner
edit
Autoscroll
slow
fast
+/-
esc
set tempo
stop
The reaon that i'm tabbing this song is because i cant find anything even near accurate. 
love this sond and Static-x. this tab is accurate. Email me with any Corrections or 
at Dougisgod1313@sbcglobal.net
Tuning - Drop C - C G C F A D

Intro

|----------------------------------------------|
|----------------------------------------------|
|----------------------------------------------|
|----------------------------------------------| x4
|-10-10-10-10-10-10-10-10-10-10-10-10-10-10-10-|
|-10-10-10-10-10-10-10-10-10-10-10-10-10-10-10-|

after the 4th time you play the chorus Riff

|----------------------------------------------|
|----------------------------------------------|
|-12-12-12-12-12-12-12--10-10-10-10-10-10-10---|
|--x--x--x--x--x--x--x---x--x--x--x--x--x--x---|
|-10-10-10-10-10-10-10---8--8--8--8--8--8--8---|
|----------------------------------------------|

|----------------------------------------------|
|----------------------------------------------|
|-12-12-12-12-12-12-12-10-10-10-12-12-12-12-12-|
|--x--x--x--x--x--x--x--x--x--x--x--x--x--x--x-|
|-10-10-10-10-10-10-10--8--8--8--8--8--8--8--8-|
|----------------------------------------------|

Verse 1
For the verse you play the intro riff until the chorus
|----------------------------------------------|
|----------------------------------------------|
|----------------------------------------------|
|----------------------------------------------|
|-10-10-10-10-10-10-10-10-10-10-10-10-10-10-10-|
|-10-10-10-10-10-10-10-10-10-10-10-10-10-10-10-|
My little Girl, My little girl, My little girl, Where are you?

|----------------------------------------------|
|----------------------------------------------|
|----------------------------------------------|
|----------------------------------------------|
|-10-10-10-10-10-10-10-10-10-10-10-10-10-10-10-|
|-10-10-10-10-10-10-10-10-10-10-10-10-10-10-10-|
My F*cked up world, my f*cked up world, my f*cked up world destroyed you

|----------------------------------------------|
|----------------------------------------------|
|----------------------------------------------|
|----------------------------------------------|
|-10-10-10-10-10-10-10-10-10-10-10-10-10-10-10-|
|-10-10-10-10-10-10-10-10-10-10-10-10-10-10-10-|
Day after day, Day after day I get it now, I cant go on without you

|----------------------------------------------|
|----------------------------------------------|
|----------------------------------------------|
|----------------------------------------------|
|-10-10-10-10-10-10-10-10-10-10-10-10-10-10-10-|
|-10-10-10-10-10-10-10-10-10-10-10-10-10-10-10-|
Twisted inside, six miles high, I rehearse how to say goodbye to you

Chorus

|----------------------------------------------|
|----------------------------------------------|
|-12-12-12-12-12-12-12--10-10-10-10-10-10-10---|
|--x--x--x--x--x--x--x---x--x--x--x--x--x--x---|
|-10-10-10-10-10-10-10---8--8--8--8--8--8--8---|
|----------------------------------------------|
Skiiiiiiiiiiiiiiiinnyyyyyyyyyyyyyyyyyyyyyyyyyyy

|----------------------------------------------|
|----------------------------------------------|
|-12-12-12-12-12-12-12-10-10-10-12-12-12-12-12-|
|--x--x--x--x--x--x--x--x--x--x--x--x--x--x--x-|
|-10-10-10-10-10-10-10--8--8--8--8--8--8--8--8-|
|----------------------------------------------|
 Maaaaaaaaaaaaaaaaaaan, Turned into a monster, i'm a mother f*cker

Verse 2

|----------------------------------------------|
|----------------------------------------------|
|----------------------------------------------|
|----------------------------------------------|
|-10-10-10-10-10-10-10-10-10-10-10-10-10-10-10-|
|-10-10-10-10-10-10-10-10-10-10-10-10-10-10-10-|

|----------------------------------------------|
|----------------------------------------------|
|----------------------------------------------|
|----------------------------------------------|
|-10-10-10-10-10-10-10-10-10-10-10-10-10-10-10-|
|-10-10-10-10-10-10-10-10-10-10-10-10-10-10-10-|
Wrap it up tight, Wrap it up tight, emotions are distorted,

|----------------------------------------------|
|----------------------------------------------|
|----------------------------------------------|
|----------------------------------------------|
|-10-10-10-10-10-10-10-10-10-10-10-10-10-10-10-|
|-10-10-10-10-10-10-10-10-10-10-10-10-10-10-10-|
It's no surprise, Nothing alive, all hope has been aborted

|----------------------------------------------|
|----------------------------------------------|
|----------------------------------------------|
|----------------------------------------------|
|-10-10-10-10-10-10-10-10-10-10-10-10-10-10-10-|
|-10-10-10-10-10-10-10-10-10-10-10-10-10-10-10-|
Day after day, Day after day I get it now, I cant go on without you

|----------------------------------------------|
|----------------------------------------------|
|----------------------------------------------|
|----------------------------------------------|
|-10-10-10-10-10-10-10-10-10-10-10-10-10-10-10-|
|-10-10-10-10-10-10-10-10-10-10-10-10-10-10-10-|
Twisted inside, six miles high, I rehearse how to say goodbye to you

Chorus

|----------------------------------------------|
|----------------------------------------------|
|-12-12-12-12-12-12-12--10-10-10-10-10-10-10---|
|--x--x--x--x--x--x--x---x--x--x--x--x--x--x---|
|-10-10-10-10-10-10-10---8--8--8--8--8--8--8---|
|----------------------------------------------|
Skiiiiiiiiiiiiiiiinnyyyyyyyyyyyyyyyyyyyyyyyyyyy

|----------------------------------------------|
|----------------------------------------------|
|-12-12-12-12-12-12-12-10-10-10-12-12-12-12-12-|
|--x--x--x--x--x--x--x--x--x--x--x--x--x--x--x-|
|-10-10-10-10-10-10-10--8--8--8--8--8--8--8--8-|
|----------------------------------------------|
 Maaaaaaaaaaaaaaaaaaan, Turned into a monster, i'm a mother f*cker

|----------------------------------------------|
|----------------------------------------------|
|-12-12-12-12-12-12-12--10-10-10-10-10-10-10---|
|--x--x--x--x--x--x--x---x--x--x--x--x--x--x---|
|-10-10-10-10-10-10-10---8--8--8--8--8--8--8---|
|----------------------------------------------|
Innnnnnnnnnnnnnnnnnnsssiiiiiiiiiiiiiiiiiiiiiiide,
|----------------------------------------------|
|----------------------------------------------|
|-12-12-12-12-12-12-12-10-10-10-12-12-12-12-12-|
|--x--x--x--x--x--x--x--x--x--x--x--x--x--x--x-|
|-10-10-10-10-10-10-10--8--8--8--8--8--8--8--8-|
|----------------------------------------------|
I'm Dead______________ All used up, God damn I miss her


Synth Part - You don't play anything, but i added the lyrics

As my skin turns yellow
I forget this hell
As the skies are bruised
And the rain comes down
As my face turns pale
Try to deal with these thoughts
At the end of it all
At the end of it all...

This is when you start to play again -

|----------------------------------------------|
|----------------------------------------------|
|----------------------------------------------|
|----------------------------------------------|
|-10-10-10-10-10-10-10-10-10-10-10-10-10-10-10-|
|-10-10-10-10-10-10-10-10-10-10-10-10-10-10-10-|
At the end of it all, At the end of it all, At the end of it all

|----------------------------------------------|
|----------------------------------------------|
|----------------------------------------------|
|----------------------------------------------|
|-10-10-10-10-10-10-10-10-10-10-10-10-10-10-10-|
|-10-10-10-10-10-10-10-10-10-10-10-10-10-10-10-|
At the end of it all, At the end of it all, At the end of it all

|----------------------------------------------|
|----------------------------------------------|
|----------------------------------------------|
|----------------------------------------------|
|-10-10-10-10-10-10-10-10-10-10-10-10-10-10-10-|
|-10-10-10-10-10-10-10-10-10-10-10-10-10-10-10-|
At the end of it all, At the end of it all, At the end of it all

|----------------------------------------------|
|----------------------------------------------|
|----------------------------------------------|
|----------------------------------------------|
|-10-10-10-10-10-10-10-10-10-10-10-10-10-10-10-|
|-10-10-10-10-10-10-10-10-10-10-10-10-10-10-10-|
At the end of it all, At the end of it all, At the end of it all

Take a 6 second pause

Chorus

|----------------------------------------------|
|----------------------------------------------|
|-12-12-12-12-12-12-12--10-10-10-10-10-10-10---|
|--x--x--x--x--x--x--x---x--x--x--x--x--x--x---|
|-10-10-10-10-10-10-10---8--8--8--8--8--8--8---|
|----------------------------------------------|
Skiiiiiiiiiiiiiiiinnyyyyyyyyyyyyyyyyyyyyyyyyyyy

|----------------------------------------------|
|----------------------------------------------|
|-12-12-12-12-12-12-12-10-10-10-12-12-12-12-12-|
|--x--x--x--x--x--x--x--x--x--x--x--x--x--x--x-|
|-10-10-10-10-10-10-10--8--8--8--8--8--8--8--8-|
|----------------------------------------------|
 Maaaaaaaaaaaaaaaaaaan, Turned into a monster, i'm a mother f*cker

|----------------------------------------------|
|----------------------------------------------|
|-12-12-12-12-12-12-12--10-10-10-10-10-10-10---|
|--x--x--x--x--x--x--x---x--x--x--x--x--x--x---|
|-10-10-10-10-10-10-10---8--8--8--8--8--8--8---|
|----------------------------------------------|
Innnnnnnnnnnnnnnnnnnsssiiiiiiiiiiiiiiiiiiiiiiide,
|----------------------------------------------|
|----------------------------------------------|
|-12-12-12-12-12-12-12-10-10-10-12-12-12-12-12-|
|--x--x--x--x--x--x--x--x--x--x--x--x--x--x--x-|
|-10-10-10-10-10-10-10--8--8--8--8--8--8--8--8-|
|----------------------------------------------|
I'm Dead______________ All used up, God damn I miss her

|----------------------------------------------|
|----------------------------------------------|
|----------------------------------------------|
|----------------------------------------------|
|-10-10-10-10-10-10-10-10-10-10-10-10-10-10-10-|
|-10-10-10-10-10-10-10-10-10-10-10-10-10-10-10-|
Skin turns yellow, I forget this hell

|----------------------------------------------|
|----------------------------------------------|
|----------------------------------------------|
|----------------------------------------------|
|-10-10-10-10-10-10-10-10-10-10-10-10-10-10-10-|
|-10-10-10-10-10-10-10-10-10-10-10-10-10-10-10-|
As the skies are bruised, and the weight comes down,

|----------------------------------------------|
|----------------------------------------------|
|----------------------------------------------|
|----------------------------------------------|
|-10-10-10-10-10-10-10-10-10-10-10-10-10-10-10-|
|-10-10-10-10-10-10-10-10-10-10-10-10-10-10-10-|
As my face turns pale, Tryin to deal with these thoughts,

|----------------------------------------------|
|----------------------------------------------|
|----------------------------------------------|
|----------------------------------------------|
|-10-10-10-10-10-10-10-10-10-10-10-10-10-10-10-|
|-10-10-10-10-10-10-10-10-10-10-10-10-10-10-10-|
At the end of it all, I still miss you.

And thats it.

            
            
Suggest correction
Creating personal tab
Creating personal tab
You can edit any tab online and save it as your Personal.

You can edit, replace or remove any tab part or add personal notes – all changes will be seen only by you.

Personal tabs can be accessed anytime from any device, even offline.
Learn more »
Give kudos to tab author, rate the tab!
1 2 3 4 5
comments
print report bad tab
1 comment total.
+1 reply
OZZYWYLDE666 93 Jul 11, 2008 08:25 AM

On the chorus riff its supposed to go
|----------------------------------------------
|-12-12-12-12-12-12-12-10-10-10-10-10-10-10-10-
|--x--x--x--x--x--x--x--x--x--x--x--x--x--x--x-
|-10-10-10-10-10-10-10--8--8--8--8--8--8--8--8-
|----------------------------------------------

|----------------------------------------------
|----------------------------------------------
|-12-12-12-12-12-12-12-10-10-10-12-12-12-12-12-
|--x--x--x--x--x--x--x--x--x--x--x--x--x--x--x-
|-10-10-10-10-10-10-10--8--8--8-10-10-10-10-10-
|----------------------------------------------

guest
You may want to rate the tab now too:
select rating
Wanna post a correction for this tab? Suggest correction