Oops, an error
Loading. Please wait.

Stingwray tab

version 1
version 1

Whole song

Interactive

3,137 views 1 this week
5 commentsread comments
1 2 3 4 5
x 3
add to favorites
×
Save as Personal and add changes to this tab that will be seen only by you. Learn more ›
×
You can save this tab as Personal to edit and correct it or add notes. All changes will be seen only by you. Learn more »
launch autoscroll
font size
0
reset
how to read this tab
guitar tuner
edit
Autoscroll
slow
fast
+/-
esc
set tempo
stop
Author
this is my interpretation of the song.
i know its not 100% correct (the chorus is where i think i go wrong)
but its better than the other tab thats up.

Artist: Static-x
Song: Stingwray
Album: Cult of Static
Year: 2009

(. Palm mute)
(/ Slide down)


Tuning: A# - F - A# - D# - G# - C

the timing may not be exact but the notes are correct.
just get the timing right and it should be good
|----------------------------------------------------|
|----------------------------------------------------|
|----------------------------------------------------|
|----------------------------------------------------|
|----------------------------------------------------|
|-121212-101010-999999999-101010-9-1212121212121212--|(repeat as much as you need to.)
just so you know those ARE twelves and tens and NOT twos, ones and zeros.


|--------------------------------------------------------------------|
|--------------------------------------------------------------------|
|------------------------------------8/7-----------------------------|
|-2-22-2-222-------------------------8/7-----------------------------|
|-2-22-2-222-(repeat as necessary)---6/5----(repeat about eight times|
|-2-22-2-222---------------------------------------------------------|
    ..   ...

|--------------------------------------------------------------------|
|--------------------------------------------------------------------|
|-1010101010---------------------------8/7---------------------------|
|-9-9-9-9-9----------------------------8/7---------------------------|
|-8-8-8-8-8----(repeat as necessary)---6/5---(repeat about four times|
|------------0-------------------------------------------------------|




Basically those are all the riffs you need to know for the song.
i dont know what tuning they play it in. but i think this is it
i hope its good enough and i hope you enjoy

            
            
Suggest correction
Creating personal tab
Creating personal tab
You can edit any tab online and save it as your Personal.

You can edit, replace or remove any tab part or add personal notes – all changes will be seen only by you.

Personal tabs can be accessed anytime from any device, even offline.
Learn more »
Give kudos to tab author, rate the tab!
1 2 3 4 5
comments
print report bad tab
5 comments total. Showing first comments.
0 reply
ravensfan927 104 Apr 24, 2009 06:27 AM

um, no sorry but thats terrible.

0 reply
webbtje 959 May 11, 2009 12:06 PM

It's actually a hell of a lot better, which inexplicably got 4 stars.

0 reply
webbtje 959 May 11, 2009 12:08 PM

By which I mean the other text tab.

guest
You may want to rate the tab now too:
select rating
Wanna post a correction for this tab? Suggest correction