Oops, an error
Loading. Please wait.

Break The Rules bass

1,650 views 6 this week
2 commentsread comments
1 2 3 4 5
2 more votes to show rating
add to favorites
×
Save as Personal and add changes to this tab that will be seen only by you. Learn more ›
×
You can save this tab as Personal to edit and correct it or add notes. All changes will be seen only by you. Learn more »
launch autoscroll
font size
0
reset
guitar tuner
edit
Autoscroll
slow
fast
+/-
esc
set tempo
stop
Author
Difficulty
-------------------------------------------------------------------------------
			  Status Quo - Break The Rules
-------------------------------------------------------------------------------
Tuning: Standard

INTRO BIT

G|---------------------------------------------------------------------------|
D|---------------------------------------------------------------------------|
A|---5-----------------------------------------------------------------------|
E|---------------------------------------------------------------------------|

VERSE 1

G|---------------------------------------------------------------------------|
D|---------------------------------------------------------------------------|
A|---------------------------------------------------------------------------|
E|---3333333333333333333333333333333333333333333333333333333333333333--------|


G|---------------------------------------------------------------------------|
D|---------------------------------------------------------------------------|
A|---3333333333333333333333333-1111111-----------1111111---------------------|
E|-------------------------------------333333333---------3333333-------------|


G|---------------------------------------------------------------------------|
D|---------------------------------------------------------------------------|
A|---555555-8-5-3-1-----------5----------------------------------------------|
E|------------------333333333------------------------------------------------|

VERSE 2

G|---------------------------------------------------------------------------|
D|---------------------------------------------------------------------------|
A|---------------------------------------------------------------------------|
E|---3333333333333333333333333333333333333333333333333333333333333333--------|


G|---------------------------------------------------------------------------|
D|---------------------------------------------------------------------------|
A|---3333333333333333333333333-1111111-----------1111111---------------------|
E|-------------------------------------333333333---------3333333-------------|


G|---------------------------------------------------------------------------|
D|---------------------------------------------------------------------------|
A|---555555-8-5-3-1-----------5----------------------------------------------|
E|------------------333333333------------------------------------------------|

SOLO 1

G|---------------------------------------------------------------------------|
D|---------------------------------------------------------------------------|
A|-----------------------------------3333333333333333------------------------|
E|---3333333333333333333333333333333------------------3333333333333333-------|


G|---------------------------------------------------------------------------|
D|---------------------------------------------------------------------------|
A|---3333333333333333333333333-1111111-----------1111111---------------------|
E|-------------------------------------333333333---------3333333-------------|



G|---------------------------------------------------------------------------|
D|---------------------------------------------------------------------------|
A|---555555-8-5-3-1-----------5555555----------------------------------------|
E|------------------333333333------------------------------------------------|

SOLO 2

G|---------------------------------------------------------------------------|
D|---------------------------------------------------------------------------|
A|-----------------------------------3333333333333333------------------------|
E|---3333333333333333333333333333333------------------3333333333333333-------|


G|---------------------------------------------------------------------------|
D|---------------------------------------------------------------------------|
A|---3333333333333333333333333-1111111-----------1111111---------------------|
E|-------------------------------------333333333---------3333333-------------|


G|---------------------------------------------------------------------------|
D|---------------------------------------------------------------------------|
A|---555555-8-5-3-1-----------5555555----------------------------------------|
E|------------------333333333------------------------------------------------|

SOLO 3

G|---------------------------------------------------------------------------|
D|---------------------------------------------------------------------------|
A|-----------------------------------3333333333333333------------------------|
E|---3333333333333333333333333333333------------------3333333333333333-------|


G|---------------------------------------------------------------------------|
D|---------------------------------------------------------------------------|
A|---3333333333333333333333333-1111111-----------1111111---------------------|
E|-------------------------------------333333333---------3333333-------------|


G|---------------------------------------------------------------------------|
D|---------------------------------------------------------------------------|
A|---555555-8-5-3-1-----------5----------------------------------------------|
E|------------------333333333------------------------------------------------|

VERSE 3

G|---------------------------------------------------------------------------|
D|---------------------------------------------------------------------------|
A|---------------------------------------------------------------------------|
E|---3333333333333333333333333333333333333333333333333333333333333333--------|


G|---------------------------------------------------------------------------|
D|---------------------------------------------------------------------------|
A|---3333333333333333333333333-1111111-----------1111111---------------------|
E|-------------------------------------333333333---------3333333-------------|


G|---------------------------------------------------------------------------|
D|---------------------------------------------------------------------------|
A|---555555-8-5-3-1-----------5555555----------------------------------------|
E|------------------333333333------------------------------------------------|


VERSE 4 (ALTERED VERSE)

G|---------------------------------------------------------------------------|
D|---------------------------------------------------------------------------|
A|------------33333333------------------3333333333333333---------------------|
E|---33333333----------3333333333333333------------------3333333333333333----|


G|---------------------------------------------------------------------------|
D|---------------------------------------------------------------------------|
A|---555555-8-5-3-1------------------555555-8-5-3-1--------------------------|
E|------------------3333333333333333----------------3333333333333333---------|


G|---------------------------------------------------------------------------|
D|---------------------------------------------------------------------------|
A|---555555-8---3------------------------------------------------------------|
E|------------------3333333-etc----------------------------------------------|


| /  slide up
| \  slide down
| h  hammer-on
| p  pull-off
| ~  vibrato
| +  harmonic
| x  Mute note
===============================================================================

            
            
Suggest correction
Creating personal tab
Creating personal tab
You can edit any tab online and save it as your Personal.

You can edit, replace or remove any tab part or add personal notes – all changes will be seen only by you.

Personal tabs can be accessed anytime from any device, even offline.
Learn more »
Give kudos to tab author, rate the tab!
1 2 3 4 5
comments
print report bad tab
2 comments total.
+1 reply
Greg Harper 3,942 Sep 26, 2007 10:15 AM

ARGGHH! Too many threes! My brain hurts! Alan plays the G about 64 times assuming he plays straight 8s throughout, meaning he plays 8 8ths to a bar. so set it out thusly:
G
G|-----------------|-----------------|
D|-----------------|-----------------|
A|-----------------|-----------------|
E|-3-3-3-3-3-3-3-3-|-3-3-3-3-3-3-3-3-| and so on.

0 reply
quomanuk 10 Sep 17, 2013 12:24 PM

Thanks for the TAB. I sure this played with shuffle beat. as above. ^^^ Key of G.

guest
You may want to rate the tab now too:
select rating
Wanna post a correction for this tab? Suggest correction