Oops, an error
Loading. Please wait.

Dirty Water tab

version 2
version 2

Whole song

5,006 views 1 this week
no commentswrite comment
1 2 3 4 5
1 last vote to show rating
add to favorites
×
Save as Personal and add changes to this tab that will be seen only by you. Learn more ›
×
You can save this tab as Personal to edit and correct it or add notes. All changes will be seen only by you. Learn more »
launch autoscroll
font size
0
reset
how to read this tab
guitar tuner
edit
Autoscroll
slow
fast
+/-
esc
set tempo
stop
Dirty Water
Status Quo
Rockin All Over The World 1977


Francis: Standard Tuning
Rick: Open G - Capo 5th Fret

I have BASED this transcription on the live
version that can be found on Youtube.
Although Rick fills in between the words most of the time,
I have written down how he would play the chords.


Ricky has this little riff that goes:

D|-19-17-14-12-10-|
B|-17-15-12-10-8--|
G|----------------|
D|----------------|
G|----------------|
D|----------------|


Chords (Rick):
  DGDGBD    DGDGBD     DGDGBD
C|x0000x  F|555555  Bb|x555xx

  DGDGBD    DGDGBD
G|777777  D|222222


Chords (Francis-with Chorus):
  E A  D  G B E    E A D  G  B E     EADGBE
C|8 10 10 9 x x  F|x 8 10 10 x x  Bb|688788

  E A  D  G  B E    EADGBE
G|x 10 12 12 x x  D|x5777x

Intro (Francis):
   C         Bb         F            C            Bb        C
E|------------------------------------------------------------|
B|-5--------------------6-5---5---------5---------------------|
G|-7b-7b-rb-5--5b-rb-3------7---7-7b----7b-7b-rb-5----------5-|
D|--------------------------------------------------3-2-0---5-|
A|--------------------------------------------------------3-3-|
E|------------------------------------------------------------|


Solo: |C| |G| |C| |C| |C| |G| |C| |C|

      |F| |C| |F| |C| |F| |F| |D| |G|


E|-------12----15-12-----------------------------------------|
B|----13----13-------13--15-12-------------------------------|
G|-12--------------------------12-10-10h12p10-9--9h10p9----9-|
D|------------------------------------------------------12---|
A|-----------------------------------------------------------|
E|-----------------------------------------------------------|

E|---------------------------12----15----12------------------|
B|------------------------13----13----13----13--15-12--------|
G|---------------------12-----------------------------12-10--|
D|-12-10-9----9-10-------------------------------------------|
A|---------12------------------------------------------------|
E|-----------------------------------------------------------|

E|-----------------------------------13-------13-------13----|
B|--------------------------------------13-------13-------13-|
G|-10h12p10-9-9h10p9----9-10----9----------14-------14-------|
D|-------------------12------12------------------------------|
A|-----------------------------------------------------------|
E|-----------------------------------------------------------|

E|-12-------12-------12-----13-------13-------13----13-------|
B|----13-------13-------13-----13-------13-------13----13----|
G|-------12-------12--------------14-------14-------------14-|
D|-----------------------------------------------------------|
A|-----------------------------------------------------------|
E|-----------------------------------------------------------|

E|-13-------13-------14-------14-------14-----13-12----------|
B|----13-------13-------15-------15-------15--------15-13-12-|
G|-------14----------------14-------14-----------------------|
D|-----------------------------------------------------------|
A|-----------------------------------------------------------|
E|-----------------------------------------------------------|

E|-------------|
B|-------------|
G|-14-12-------|
D|-------15-14-|
A|-------------|
E|-------------|

            
            
Suggest correction
Creating personal tab
Creating personal tab
You can edit any tab online and save it as your Personal.

You can edit, replace or remove any tab part or add personal notes – all changes will be seen only by you.

Personal tabs can be accessed anytime from any device, even offline.
Learn more »
Give kudos to tab author, rate the tab!
1 2 3 4 5
comments
print report bad tab
guest
You may want to rate the tab now too:
select rating
Wanna post a correction for this tab? Suggest correction