Oops, an error
Loading. Please wait.

Lonely Man tab

2,499 views 9 this week
no commentswrite comment
1 2 3 4 5
2 more votes to show rating
add to favorites
×
Save as Personal and add changes to this tab that will be seen only by you. Learn more ›
×
You can save this tab as Personal to edit and correct it or add notes. All changes will be seen only by you. Learn more »
launch autoscroll
font size
0
reset
how to read this tab
guitar tuner
edit
Autoscroll
slow
fast
+/-
esc
set tempo
stop
Author
**************
                              * Lonely Man *
                              **************

Lancaster/Parfitt

                          *********************
                          * Electric Guitar 2 *
                          *   Ricks Part      *
                          *********************

    1   +   2   +   3   +   4   +    1   +   2   +   3   +   4   +
E||---------------------------------|0-0-0-0-0-0-0-0-0-0-0-0-0-0-0-0--||
B||*0---0-0-0---0-0-0-0-0-0---0-0-0-|5-5-5-5-5-5-5-5-5-5-5-5-5-5-5-5-*||
G||-4---4-4-4---4-4-4-4-4-4---4-4-4-|---------------------------------|| 7x
D||---------------------------------|---------------------------------|| Verse 1
A||*--------------------------------|--------------------------------*|| after
E||---------------------------------|---------------------------------|| 4x
    d   d u d   d u d u d d   u d u  >       >       >       >
    >       >             >


    1   +   2   +   3   +   4   +
E||----------------------------------||
B||*7-7-7-7-7-7-7-7-7-7-7-7-7-7-7-7-*||
G||-7-7-7-7-7-7-7-7-7-7-7-7-7-7-7-7--||
D||-7-7-7-7-7-7-7-7-7-7-7-7-7-7-7-7--|| 2x
A||*--------------------------------*||
E||----------------------------------||
                  >   >
    d u d u d u d u d u d u d u d u etc.

  1     +     2     +     3     +     4     +
E|------------------------------------------------|
B|12-12-12-12-12-12-12-12-12-12-12-12-12-12-12-12-|
G|12-12-12-12-12-12-12-12-12-12-12-12-12-12-12-12-|
D|12-12-12-12-12-12-12-12-12-12-12-12-12-12-12-12-|
A|------------------------------------------------|
E|------------------------------------------------|
                       >     >


  1   +   2   +   3   +   4   +    1   +   2   +   3   +   4   +
E|--------------------------------|--------------------------------|
B|9-9-9-9-9-9-9-9-9-9-9-9-9-9-9-9-|7-7-7-7-7-7-7-7-7-7-7-7-7-7-7-7-|
G|9-9-9-9-9-9-9-9-9-9-9-9-9-9-9-9-|7-7-7-7-7-7-7-7-7-7-7-7-7-7-7-7-|
D|9-9-9-9-9-9-9-9-9-9-9-9-9-9-9-9-|7-7-7-7-7-7-7-7-7-7-7-7-7-7-7-7-|
A|--------------------------------|--------------------------------|
E|--------------------------------|--------------------------------|
                >   >                            >   >

  1   +   2   +   3   +   4   +    1   +   2   +   3   +   4   +
E|--------------------------------|2-2-2-2-2-2-2-2-2-2-2-2-2-2-2-2-|
B|9-9-9-9-9-9-9-9-9-9-9-9-9-9-9-9-|0-0-0-0-0-0-0-0-0-0-0-0-0-0-0-0-|
G|9-9-9-9-9-9-9-9-9-9-9-9-9-9-9-9-|2-2-2-2-2-2-2-2-2-2-2-2-2-2-2-2-|
D|9-9-9-9-9-9-9-9-9-9-9-9-9-9-9-9-|--------------------------------|
A|--------------------------------|--------------------------------|
E|--------------------------------|--------------------------------|
                >   >                            >   >


  1   +   2   +   3   +   4   +    1   +   2   +   3   +   4   +
E|------------2-------------------|2-----2-2---2---2-2-2-4---5---x-|
B|--------0-----------------------|0-----0-0---0---0-0-0-0---0---x-|
G|----1---------------------------|--------------------------------|
D|0-------------------------------|--------------------------------|
A|--------------------------------|--------------------------------|
E|--------------------------------|--------------------------------|
                                   d     u d   d   d u d u   u   u


  1   +   2   +   3   +   4   +    1   +   2   +   3   +   4   +
E|0---0-0-0-0-0---0-0-0-0-0-0-0-2-|2-----2-2---2---2-2-2-4---5---x-|
B|5---5-5-5-5-5---5-5-5-5-5-0-0-0-|0-----0-0---0---0-0-0-0---0---x-|
G|--------------------------------|--------------------------------|
D|--------------------------------|--------------------------------|
A|--------------------------------|--------------------------------|
E|--------------------------------|--------------------------------|


  1   +   2   +   3   +   4   +
E|0---0-0-0-0-0---7-7-7-7-7-4-4---|
B|5---5-5-5-5-5---5-5-5-5-5-5-5---|
G|--------------------------------|
D|--------------------------------|
A|--------------------------------|
E|--------------------------------|
                   > > > > >

Verse 2:

  1   +   2   +   3   +   4   +    1   +   2   +   3   +   4   +
E|--------------------------------|4---4-4-4---4-4-5-5---5---4-4-4-|
B|4---4-4-4---4-4-4-4-4-4---4-4-x-|5---5-5-5---5-5-5-5---5---5-5-5-|
G|4---4-4-4---4-4-4-4-4-4---4-4-x-|4---4-4-4---4-4-4-4---4---4-4-4-|
D|4---4-4-4---4-4-4-4-4-4---4-4-x-|--------------------------------|
A|--------------------------------|--------------------------------|
E|--------------------------------|--------------------------------|
  d   d u d   d u d u d u   u d u  d   d u d   d u d u   u   u d u


    1   +   2   +   3   +   4   +    1   +   2   +   3   +   4   +
E||---------------------------------|---------------------------------||
B||*4---4-4-4---4-4-4-4-4-4---4-4-x-|5---5-5-5---5-5-5-5-5-5---5-5-x-*||
G||-4---4-4-4---4-4-4-4-4-4---4-4-x-|4---4-4-4---4-4-4-4-4-4---4-4-x--||
D||-4---4-4-4---4-4-4-4-4-4---4-4-x-|6---6-6-6---6-6-6-6-6-6---6-6-x--|| 2x
A||*--------------------------------|--------------------------------*||
E||---------------------------------|---------------------------------||
    d   d d d   d d d d d d   d d u  etc.

  1   +   2   +   3   +   4   +    1   +   2   +   3   +   4   +
E|--------------------------------|--------------------------------|
B|7---7-7-7-----------------------|7-7---7-7---7-7---7-7---7-7-7-7-|
G|7---7-7-7---------7---7---7---7-|7-7---7-7---7-7---7-7---7-7-7-7-|
D|7---7-7-7---7-7-7---7---7---7---|7-7---7-7---7-7---7-7---7-7-7-7-|
A|--------------------------------|--------------------------------|
E|--------------------------------|--------------------------------|
                                   > >   > >   > >   > >


  1   +   2   +   3   +   4   +    1   +   2   +   3   +   4   +
E|7-7-7-7-7---7---7-7-7-7-7---7---|4-4-4-4-4---4---4-4-4-4-4---4---|
B|8-8-8-8-8---8---8-8-8-8-8---8---|5-5-5-5-5---5---5-5-5-5-5---5---|
G|7-7-7-7-7---7---7-7-7-7-7---7---|4-4-4-4-4---4---4-4-4-4-4---4---|
D|--------------------------------|--------------------------------|
A|--------------------------------|--------------------------------|
E|--------------------------------|--------------------------------|


  1   +   2   +   3   +   4   +    1   +   2   +   3   +   4   +
E|2-2-2-2-2-------2-2-2-2-2-------|0---0---0-----0---0-----0-------|
B|3-3-3-3-3-------3-3-3-3-3-------|0---0---0-----0---0-----0-------|
G|2-2-2-2-2-------2-2-2-2-2-------|1---1---1---1---------1-----1---|
D|--------------------------------|--------------------------------|
A|--------------------------------|--------------------------------|
E|--------------------------------|--------------------------------|
                                   d   d   d   d u   u   d u   d
                                                 >   >     >

  1   +   2   +   3   +   4   +    1   +   2   +   3   +   4   +
E|2-2-2-2-2---2-2---2---2-2-2-2---|2-2-2-2-2---2-2---2---2-2-2-2---|
B|0-0-0-0-0---0-0---0---0-0-0-0---|3-3-3-3-3---3-3---3---3-3-3-3---|
G|2-2-2-2-2---2-2---2---2-2-2-2---|1-1-1-1-1---1-1---1---1-1-1-1---|
D|--------------------------------|--------------------------------|
A|--------------------------------|--------------------------------|
E|--------------------------------|--------------------------------|
  d u d u d   u d   d   u d u d
                >   >


    1   +   2   +   3   +   4   +    1   +   2   +   3   +   4   +
E||---------------------------------|---------------------------------||
B||*--------------------------------|9---9-9-9---9-9-9-9-9-9-9-9-9-x-*||
G||-8---8-8-8---8-8-8-8-8-8---8-8-x-|9---9-9-9---9-9-9-9-9-9-9-9-9-x--||
D||-9---9-9-9---9-9-9-9-9-9---9-9-x-|9---9-9-9---9-9-9-9-9-9-9-9-9-x--||
A||*9---9-9-9---9-9-9-9-9-9---9-9-x-|7---7-7-7---7-7-7-7-7-7-7-7-7-x-*|| 2x
E||-7---7-7-7---7-7-7-7-7-7---7-7-x-|---------------------------------||
    d   d u d   d u d d d d   u d u  d   d u d   d u d d d d d u d u

Bridge:
  1   +   2   +   3   +   4   +    1   +   2   +   3   +   4   +
E|3-------3-------3---------------|--------------------------------|
B|3-------3-------3---------------|--------------------------------|
G|4-------4-------4---------------|1-------1---------2---2---2-----|
D|5-------5-------5---------------|2-------2-------2-2---2---2-----|
A|5-------5-------5---------------|2-------2-------0---------------|
E|3-------3-------3---------------|0-------0-----------------------|
                                                     >   >   >
                                                     .   .   .      .=short
                                                   d u   u   u

  1   +   2   +   3   +   4   +    1   +   2   +   3   +   4   +
E|--------------------------------|--------------------------------|
B|7-------7-------7---------------|--------------------------------|
G|8-------8-------8---------------|8---8---8-----8---8-8-8-8-8-x---|
D|9-------9---9---9---------------|9---9---9-----9---9-9-9-9-9-x---|
A|9-------9---9---9---------------|9---9---9-----9---9-9-9-9-9-x---|
E|7-------7---7---7---------------|7---7---7-----7---7-7-7-7-7-x---|
  d       d   d   d                d   d   d     d   u d u d u d

    1   +   2   +   3   +   4   +    1   +   2   +   3   +   4   +
E|----------------------------------|--------------------------------|
B|2/3-----3-3---3-3---------3-------|0-0-0-0-0-0-0---2-2-2-2-2-2-2---|
G|3/4-----4-4---4-4---------4-------|1-1-1-1-1-1-1---2-2-2-2-2-2-2---|
D|4/5-----5-5---5-5---------5-------|2-2-2-2-2-2-2---2-2-2-2-2-2-2---|
A|4/5-----5-5---5-5---------5-------|2-------------------------------|
E|----------------------------------|0-------------------------------|
                                                     > > > > > > >
                                                                 .
                                                     d d d d d d d


  1   +   2   +   3   +   4   +    1   +   2   +   3   +   4   +
E|--------------------------------|----------------7-7-7-7-7-4-4-2-|
B|--------------------------------|----------------5-5-5-5-5-5-5-0-|
G|--------------------------------|--------------------------------|
D|--------------------------------|--------------------------------|
A|(2)-----------------------------|--------------------------------|
E|--------------------------------|--------------------------------|


  1   +   2   +   3   +   4   +    1   +   2   +   3   +   4   +
E|2---2-2-2-2-2---2---------------|0-0-0-0-0-0-0-0-0-0-0-0-0-0-0-0-|
B|0---0-0-0-0-0---0---------------|5-5-5-5-5-5-5-5-5-5-5-5-5-5-5-5-|
G|4---4-4-4-4-4---4---------------|4-4-4-4-4-4-4-4-4-4-4-4-4-4-4-4-|
D|--------------------------------|--------------------------------|
A|--------------------------------|--------------------------------|
E|--------------------------------|--------------------------------|

Solo:
  1   +   2   +   3   +   4   +    1   +   2   +   3   +   4   +
E|2-2-2-2-2-2-2-2-2-2-2-4---2-0---|4-4-4-4-4-4-4-4-5-5-5-5-5-4-4-4-|
B|0-0-0-0-0-0-0-0-0-0-0-0---0-0---|5-5-5-5-5-5-5-5-5-5-5-5-5-5-5-5-|
G|4-4-4-4-4-4-4-4-4-4-4-4---4-4---|4-4-4-4-4-4-4-4-4-4-4-4-4-4-4-4-|
D|--------------------------------|--------------------------------|
A|--------------------------------|--------------------------------|
E|--------------------------------|--------------------------------|

  1   +   2   +   3   +   4   +    1   +   2   +   3   +   4   +
E|2-2-2-2-2-2-2-2-2-2-2-4---2-0---|4-4-4-4-4-4-4-7---7-x-7---x-x-x-|
B|0-0-0-0-0-0-0-0-0-0-0-0---0-0---|5-5-5-5-5-5-5-5---5-x-5---x-x-x-|
G|4-4-4-4-4-4-4-4-4-4-4-4---4-4---|4-4-4-4-4-4-4-4---4-x-4---x-x-x-|
D|--------------------------------|--------------------------------|
A|--------------------------------|--------------------------------|
E|--------------------------------|--------------------------------|

  1   +   2   +   3   +   4   +    1   +   2   +   3   +   4   +
E|2-2-2-2-2-2-2-2-2-2-2-0---2-0---|4-4-4-4-4-4-4-4-5-5-5-5-5-4-4-4-|
B|0-0-0-0-0-0-0-0-0-0-0-0---0-0---|5-5-5-5-5-5-5-5-5-5-5-5-5-5-5-5-|
G|4-4-4-4-4-4-4-4-4-4-4-4---4-4---|4-4-4-4-4-4-4-4-4-4-4-4-4-4-4-4-|
D|--------------------------------|--------------------------------|
A|--------------------------------|--------------------------------|
E|--------------------------------|--------------------------------|


  1   +   2   +   3   +   4   +    1   +   2   +   3   +   4   +
E|2-2-2-2-2-2-2-2-2-2-2-4---2-0---|4-4-4-4-4-4-4-4-5-5-5-5-5-4-4-4-|
B|0-0-0-0-0-0-0-0-0-0-0-0---0-0---|5-5-5-5-5-5-5-5-5-5-5-5-5-5-5-5-|
G|4-4-4-4-4-4-4-4-4-4-4-4---4-4---|4-4-4-4-4-4-4-4-4-4-4-4-4-4-4-4-|
D|--------------------------------|--------------------------------|
A|--------------------------------|--------------------------------|
E|--------------------------------|--------------------------------|

Louder part of solo:
  1   +   2   +   3   +   4   +    1   +   2   +   3     +     4    +
E|--------------------------------|-------------------------------------|
B|7-7-7-7-7-7-7-7-7-7-7-7-7-7-7-7-|9-9-9-9-9-9-9-9-10-10-10-10-10-9-9-9-|
G|8-8-8-8-8-8-8-8-8-8-8-8-8-8-8-8-|9-9-9-9-9-9-9-9-9--9--9--9--9--9-9-9-|
D|9-9-9-9-9-9-9-9-9-9-9-9-9-9-9-9-|9-9-9-9-9-9-9-9-9--9--9--9--9--9-9-9-|
A|--------------------------------|-------------------------------------|
E|--------------------------------|-------------------------------------|
  d u d u d u d u d u d u d u d u  d u d u d u d u d  d  d  d  d  u d u
  >               >                                >  >  >  >  >


  1   +   2   +   3   +   4   +    1   +   2   +   3   +   4   +
E|--------------------------------|--------------------------------|
B|7-7-7-7-7-7-7-7-7-7-7-9---7-----|9---9-9-9---9-12--12--12--9-9-9-|
G|8-8-8-8-8-8-8-8-8-8-8-8---8-9---|9---9-9-9---9-9---9---9---9-9-9-|
D|9-9-9-9-9-9-9-9-9-9-9-9---9-9---|9---9-9-9---9-9---9---9---9-9-9-|
A|--------------------------------|--------------------------------|
E|--------------------------------|--------------------------------|
  d u d u d u d u d u d u   u d    d   d u d   d u   u   u   u d u
  >                     >   >                    >   >   >


  1   +   2   +   3   +   4   +    1   +   2   +   3   +   4   +
E|--------------------------------|--------------------------------|
B|7-7-7-7-7-7-7-7-7-7-7-7-7-7-7-7-|9---9---9---9-9---9-9-9-9-9-9-9-|
G|8-8-8-8-8-8-8-8-8-8-8-8-8-8-8-8-|9---9---9---9-9---9-9-9-9-9-9-9-|
D|9-9-9-9-9-9-9-9-9-9-9-9-9-9-9-9-|9---9---9---9-9---9-9-9-9-9-9-9-|
A|--------------------------------|--------------------------------|
E|--------------------------------|--------------------------------|
  d u d u d u d u d u d u d u d u  d   d   d   d u   u d u d u d u
  >               >                >   >   >

  1   +   2   +   3   +   4   +    1   +   2   +   3   +   4   +
E|--------------------------------|--------------------------------|
B|7-7-7-7-7-7-7-7-7-7-7-7-7-7-7-7-|9---9-9-9---9-9---9---9-9-9-9-9-|
G|8-8-8-8-8-8-8-8-8-8-8-8-8-8-8-8-|9---9-9-9---9-9---9---9-9-9-9-9-|
D|9-9-9-9-9-9-9-9-9-9-9-9-9-9-9-9-|9---9-9-9---9-9---9---9-9-9-9-9-|
A|--------------------------------|--------------------------------|
E|--------------------------------|--------------------------------|
  d u d u d u d u d u d u d u d u  d   d d d   d u   u   u d u d u
  >               >                >   > > >     >   >

Bridge:


  1   +   2   +   3   +   4   +    1   +   2   +   3   +   4   +
E|3---3-3-3---3-3---3---3-3---3-3-|0---0-0-0---0-----5---5---5-----|
B|3---3-3-3---3-3---3---3-3---3-3-|0---0-0-0---0-----5---5---5-----|
G|4---4-4-4---4-4---4---4-4---4-4-|1---1-1-1---1---2-2---2---2-----|
D|5---5-5-5---5-5---5---5-5---5-5-|2---2-2-2---2---2---------------|
A|5---5-5-5---5-5---5---5-5---5-5-|2---2-2-2---2---0---------------|
E|3---3-3-3---3-3---3---3-3---3-3-|0---0-0-0---0-------------------|
                >   >                                >   >   >
                                                     .   .   .
  d   d u d   d u   u   u d   d u                  d u   u   u


  1   +   2   +   3   +   4   +    1   +   2   +   3   +   4   +
E|--------------------------------|--------------------------------|
B|4---4-4-4-4-4-4---4---4-4-4-4-4-|4---4-4-4-4-4-4---4---4-4-4-4---|
G|4---4-4-4-4-4-4---4---4-4-4-4-4-|4---4-4-4-4-4-4---4---4-4-4-4---|
D|4---4-4-4-4-4-4---4---4-4-4-4-4-|4---4-4-4-4-4-4---4---4-4-4-4---|
A|2---2-2-2-2-2-2---2---2-2-2-2-2-|2---2-2-2-2-2-2---2---2-2-2-2---|
E|--------------------------------|--------------------------------|
  d   d u d u d u   u   u d u d u

  1   +   2   +   3   +   4   +    1   +   2   +   3   +   4   +
E|3---3-3-3---3-3---3---3-3---3-3-|0---0-0-0---0-------------------|
B|3---3-3-3---3-3---3---3-3---3-3-|0---0-0-0---0---2-2-2-2-2-2-2---|
G|4---4-4-4---4-4---4---4-4---4-4-|1---1-1-1---1---2-2-2-2-2-2-2---|
D|5---5-5-5---5-5---5---5-5---5-5-|2---2-2-2---2---2-2-2-2-2-2-2---|
A|5---5-5-5---5-5---5---5-5---5-5-|2---2-2-2---2---0-0-0-0-0-0-0---|
E|3---3-3-3---3-3---3---3-3---3-3-|0---0-0-0---0-------------------|
                >   >                              > > > > > > >
                                                               .
  d   d u d   d u   u   u d   d u                  d d d d d d d


  1   +   2   +   3   +   4   +    1   +   2   +   3   +   4   +
E|--------------------------------|--------------------------------|
B|4---4-4-4-4-4-4---4---4-4-4-4-4-|4---4-4-4-4-4-4---4---4-4-4-4---|
G|4---4-4-4-4-4-4---4---4-4-4-4-4-|4---4-4-4-4-4-4---4---4-4-4-4---|
D|4---4-4-4-4-4-4---4---4-4-4-4-4-|4---4-4-4-4-4-4---4---4-4-4-4---|
A|2---2-2-2-2-2-2---2---2-2-2-2-2-|2---2-2-2-2-2-2---2---2-2-2-2---|
E|--------------------------------|--------------------------------|
  d   d u d u d u   u   u d u d u

Verse 3:


  1   +   2   +   3   +   4   +    1   +   2   +   3   +   4   +
E|--------------------------------|--------------------------------|
B|7---7-7-7---7-7-7-7-7-7-7-7-7-7-|9---9-9-9---9-9-9-9-9-9-9-9-9-9-|
G|8---8-8-8---8-8-8-8-8-8-8-8-8-8-|9---9-9-9---9-9-9-9-9-9-9-9-9-9-|
D|9---9-9-9---9-9-9-9-9-9-9-9-9-9-|9---9-9-9---9-9-9-9-9-9-9-9-9-9-|
A|--------------------------------|--------------------------------|
E|--------------------------------|--------------------------------|
  >       >                        >       >

  1   +   2   +   3   +   4   +    1   +   2   +   3     +     4    +
E|--------------------------------|-------------------------------------|
B|7---7-7-7---7-7-7-7-7-7-7-7-7-7-|9---9-9-9---9-9-10-10-10-10-10-9-9-9-|
G|8---8-8-8---8-8-8-8-8-8-8-8-8-8-|9---9-9-9---9-9-9--9--9--9--9--9-9-9-|
D|9---9-9-9---9-9-9-9-9-9-9-9-9-9-|9---9-9-9---9-9-9--9--9--9--9--9-9-9-|
A|--------------------------------|-------------------------------------|
E|--------------------------------|-------------------------------------|
  >       >                        >       >       >  >  >  >  >


  1   +   2   +   3   +   4   +    1   +   2   +   3   +   4   +
E|--------------------------------|--------------------------------|
B|7---7-7-7---7-7-7-7-7-7-7-7-7-7-|9---9-9-9---9-9-9-9-9-9-9-9-9-9-|
G|8---8-8-8---8-8-8-8-8-8-8-8-8-8-|9---9-9-9---9-9-9-9-9-9-9-9-9-9-|
D|9---9-9-9---9-9-9-9-9-9-9-9-9-9-|9---9-9-9---9-9-9-9-9-9-9-9-9-9-|
A|--------------------------------|--------------------------------|
E|--------------------------------|--------------------------------|
  >       >                        >       >


  1   +   2   +   3   +   4   +    1   +   2   +   3   +   4   +
E|--------------------------------|--------------------------------|
B|7---7---7---7---7---7---7---7---|---7--------------------7-------|
G|7---7---7---7---7---7---7---7---|--7---------------------7---7---|
D|7---7---7---7---7---7---7---7---|-7--------------------------7---|
A|5---5---5---5---5---5---5---5---|5-------------------------------|
E|--------------------------------|--------------------------------|
  >   >   >   >   >   >   >   >    >
  .   .   .   .   .   .   .   .


  1   +   2   +     3    +    4   +    1   +   2   +   3   +   4   +
E|------------------------------------|--------------------------------|
B|12--12--12--12-12---12---12-----12--|9---9---9---9-9---9---9-----9---|
G|12--12--12--12-12---12---12-----12--|9---9---9---9-9---9---9-----9---|
D|12--12--12--12-12---12---12-----12--|9---9---9---9-9---9---9-----9---|
A|------------------------------------|--------------------------------|
E|------------------------------------|--------------------------------|
  d   d   d   d  u    u    u      d

  1   +   2   +   3   +   4   +    1   +   2   +   3   +   4   +
E|--------------------------------|--------------------------------|
B|7---7---7---7-7---7---7-----7---|9---9---9---9-9---9---9-----9---|
G|7---7---7---7-7---7---7-----7---|9---9---9---9-9---9---9-----9---|
D|7---7---7---7-7---7---7-----7---|9---9---9---9-9---9---9-----9---|
A|--------------------------------|--------------------------------|
E|--------------------------------|--------------------------------|


  1   +   2   +   3   +   4   +    1   +   2   +   3   +   4   +
E|--------------------------------|--------------------------------|
B|----0-------0-------0-------0---|----0-------0-------0-------0---|
G|11------11------11------11------|11------11------11------11------|
D|0-------0-------0-------0-------|0-------0-------0-------0-------|
A|12------12------12------12------|11------11------11------11------|
E|--------------------------------|--------------------------------|

  1   +   2   +   3   +   4   +    1   +   2   +   3     +     4    +
E|--------------------------------|-------------------------------------|
B|7---7-7-7---7-7-7-7-7-9---10----|9---9-9-9---9-9-10-10-10-10-10-9-9-9-|
G|8---8-8-8---8-8-8-8-8-8---8-----|9---9-9-9---9-9-9--9--9--9--9--9-9-9-|
D|9---9-9-9---9-9-9-9-9-9---9-----|9---9-9-9---9-9-9--9--9--9--9--9-9-9-|
A|--------------------------------|-------------------------------------|
E|--------------------------------|-------------------------------------|
  d   d u d   d u d u d u   u      d   d u d   d u d  d  d  d  d  u d u
                        >   >                      >  >  >  >  >


    1   +   2   +   3   +   4   +    1   +   2   +   3     +     4    +
E||---------------------------------|--------------------------------------||
B||*7---7-7-7---7-7-7-7-7-9---7-----|9---9-9-9---9-9-10-10-10-10-10-9-9-9-*||
G||-8---8-8-8---8-8-8-8-8-8---8-9---|9---9-9-9---9-9-9--9--9--9--9--9-9-9--||
D||-9---9-9-9---9-9-9-9-9-9---9-9---|9---9-9-9---9-9-9--9--9--9--9--9-9-9--||
A||*--------------------------------|-------------------------------------*|| 6x
E||---------------------------------|--------------------------------------||
    >       >             >   > >                    >  >  >  >  >
    d   d u d   d u d u d u   u d    d   d u d   d u d  d  d  d  d  u d u

    1   +   2   +   3   +   4   +    1   +   2   +   3   +   4   +
E||---------------------------------|---------------------------------||
B||*7-------------------7-----------|9-------------9---9-------------*||
G||-8-----------------------8-------|9-------------------9------------||
D||-9---------------------------9---|9-----------9-----------9--------||
A||*--------------------------------|--------------------------------*|| 2x
E||---------------------------------|---------------------------------||

  1   +   2   +   3   +   4   +    1   +   2   +   3   +   4   +
E|2-------2---------------2-------|------------2-------------------|
B|0---0-------0---------------0---|--------0-----------------------|
G|2-------------------2-----------|----1---------------------------|
D|--------------------------------|0-------------------------------|
A|--------------------------------|--------------------------------|
E|--------------------------------|--------------------------------|

  1   +   2   +   3   +   4   +    1   +   2   +   3   +   4   +
E|--------------------------------|--------------------------------|
B|--4-----------------------------|--------------------------------|
G|-4------------------------------|--------------------------------|
D|4-------------------------------|--------------------------------|
A|--------------------------------|--------------------------------|
E|--------------------------------|--------------------------------|

            
            
Suggest correction
Creating personal tab
Creating personal tab
You can edit any tab online and save it as your Personal.

You can edit, replace or remove any tab part or add personal notes – all changes will be seen only by you.

Personal tabs can be accessed anytime from any device, even offline.
Learn more »
Give kudos to tab author, rate the tab!
1 2 3 4 5
comments
print report bad tab
guest
You may want to rate the tab now too:
select rating
Wanna post a correction for this tab? Suggest correction