Oops, an error
Loading. Please wait.

Qeenie bass

323 views 1 this week
no commentswrite comment
1 2 3 4 5
3 more votes to show rating
add to favorites
×
Save as Personal and add changes to this tab that will be seen only by you. Learn more ›
×
You can save this tab as Personal to edit and correct it or add notes. All changes will be seen only by you. Learn more »
launch autoscroll
font size
0
reset
guitar tuner
edit
Autoscroll
slow
fast
+/-
esc
set tempo
stop
    Queenie                                   


                                                                 Status Quo
Bass



     Q       Q       Q       Q       Q       Q       Q       Q       Q     
G||-------|-------|-------|-------|-------|-------|-------|-------|-------|
D||-------|-------|-------|-------|-------|-------|-------|-------|-------|
A||-------|-------|-------|-------|-------|-------|-------|-------|-------|
E||-------|-------|-------|-------|-------|-------|-------|-------|-------|


  Q       Q       Q       H        Q    Q       E  E  Q    E  E  Q     
-------|-------|-------|----------------4----|------------------------|
-------|-------|-------|---------------------|--2--2-------2--2-------|
-------|-------|-------|---------------------|--------2----------2----|
-------|-------|-------|---------------------|------------------------|


  Q    Q    Q    Q       E  E  Q    E  E  Q       E  E  Q    E  E  Q     
----------------------|------------------------|------------------------|
--2----1--------------|--------4----------4----|--------4---------------|
------------4----3----|--2--2-------2--2-------|--2--2-------2--2--4----|
----------------------|------------------------|------------------------|


  E  E  Q    E  E  Q       E  E  Q    E  E  Q       E  E  Q    E  E  Q     
------------------------|------------------------|--------4----------4----|
--------4----------4----|--------4---------------|--2--2-------2--2-------|
--2--2-------2--2-------|--2--2-------2--2--4----|------------------------|
------------------------|------------------------|------------------------|


  E  E  E  E  E  E  E  E     Q    Q    E  E  E  E   
--------4--6--4--------4--|------------------1-----|
--2--2-----------4--2-----|--2------------2-----2--|
--------------------------|------------------------|
--------------------------|------------------------|


  E  E  Q    E  E  Q       E  E  Q    E  E  Q       E  E  Q    E  E  Q     
--------4----------4----|------------------------|------------------------|
--2--2-------2--2-------|--------4----------4----|--------4---------------|
------------------------|--2--2-------2--2-------|--2--2-------2--2--4----|
------------------------|------------------------|------------------------|


  E  E  Q    E  E  Q       E  E  Q    E  E  Q       E  E  Q    E  E  Q     
------------------------|------------------------|--------4----------4----|
--------4----------4----|--------4---------------|--2--2-------2--2-------|
--2--2-------2--2-------|--2--2-------2--2--4----|------------------------|
------------------------|------------------------|------------------------|


  E  E  E  E  E  E  E  E     Q    Q    E  E  E  E   
--------4--6--4--------4--|------------------1-----|
--2--2-----------4--2-----|--2------------2-----2--|
--------------------------|------------------------|
--------------------------|------------------------|


  E  E  Q    E  E  Q       E  E  Q    E  E  Q     
--------4----------4----|------------------------|
--2--2-------2--2-------|--------4----------4----|
------------------------|--2--2-------2--2-------|
------------------------|------------------------|


  E  E  E  E  E  E  E  E     E  E  Q    E  E  E  E   
--------------------------|-------------------------|
--------4--6--4--2-----4--|--------4-------2-----4--|
--2--2--------------4-----|--2--2-------------2-----|
--------------------------|-------------------------|


  Q    Q    Q    Q       E  E  Q    E  E  Q       E  E  E  E  E  E  Q     
----------------------|--------4---------------|--------------------4----|
--4--------------1----|--2--2-------2--2-------|--------------2--2-------|
-------2----4---------|------------------------|--------2--2-------------|
----------------------|-------------------4----|--0--0-------------------|


  E  E  Q    E  E  Q       E  E  Q    E  E  Q       E  E  Q    E  E  Q     
--------4----------4----|--------4---------------|------------------------|
--2--2-------2--2-------|--2--2-------2--2--4----|--------4----------4----|
------------------------|------------------------|--2--2-------2--2-------|
------------------------|------------------------|------------------------|


  E  E  E  E  E  E  E  E     E  E  Q    E  E  Q     
--------------------------|------------------------|
--------4--6--4--2-----4--|--------4----------4----|
--2--2--------------4-----|--2--2-------2--2-------|
--------------------------|------------------------|


  E  E  E  E  E  E  E  E     E  E  Q    E  E  Q     
--------------------------|--------4----------4----|
--------4--6--4--2-----4--|--2--2-------2--2-------|
--2--2--------------4-----|------------------------|
--------------------------|------------------------|


  E  E  E  E  E  E  E  E     E  E  Q    E  E  Q     
--L--2--1-----------------|--------4----------4----|
-----------4--2--1-----4--|--2--2-------2--2-------|
--------------------4-----|------------------------|
--------------------------|------------------------|


  E  E  E  E  E  E  E  E     E  E  Q    E  E  Q     
--------4--6--4--2--1-----|------------------------|
--2--2-----------------4--|--------4----------4----|
--------------------------|--2--2-------2--2-------|
--------------------------|------------------------|


  E  E  E  E  E  E  E  E     E  E  Q    E  E  Q     
--------------------------|------------------------|
--------------1--1--2-----|--------4----------4----|
--2--2--4--4-----------4--|--2--2-------2--2-------|
--------------------------|------------------------|


  E  E  E  E  E  E  E  E     E  E  E  E  E  E  E  E   
--------------------------|--------1--1--4--4--6--4--|
--------4--6--4--2-----4--|--2--2--------------------|
--2--2--------------4-----|--------------------------|
--------------------------|--------------------------|


  E  E  E  E  E  E  E  E     E  E  Q    E  E  Q     
--------4--4--6--4--2--1--|--------0----------2----|
--2--2--------------------|------------------------|
--------------------------|--3--3-------5--5-------|
--------------------------|------------------------|


  E  E  Q    E  E  E  E     Q    Q    Q    Q       Q    Q    Q    Q     
--------4----------4--4--|--5---------7---------|-------8---------8----|
-------------------------|-------5---------7----|--9---------9---------|
--7--7-------7--7--------|----------------------|----------------------|
-------------------------|----------------------|----------------------|


  Q    Q    Q    Q       E  E  Q    E  E  Q       Q    Q    Q    Q     
--8----6----5----4----|------------------------|----------------------|
----------------------|--2--2-------2--2-------|--2----1--------------|
----------------------|--------2----------2----|------------4----3----|
----------------------|------------------------|----------------------|


  E  E  Q    E  E  Q       E  E  Q    E  E  Q       E  E  Q    E  E  Q     
------------------------|------------------------|------------------------|
--------4----------4----|--------4---------------|--------4----------4----|
--2--2-------2--2-------|--2--2-------2--2--4----|--2--2-------2--2-------|
------------------------|------------------------|------------------------|


  E  E  Q    E  E  Q       E  E  Q    E  E  Q     
------------------------|--------4----------4----|
--------4---------------|--2--2-------2--2-------|
--2--2-------2--2--4----|------------------------|
------------------------|------------------------|


  E  E  E  E  E  E  E  E     Q    Q    E  E  E  E   
--------4--6--4--------4--|------------------1-----|
--2--2-----------4--2-----|--2------------2-----2--|
--------------------------|------------------------|
--------------------------|------------------------|


  E  E  Q    E  E  Q       E  E  Q    E  E  Q       E  E  Q    E  E  Q     
--------4----------4----|------------------------|------------------------|
--2--2-------2--2-------|--------4----------4----|--------4---------------|
------------------------|--2--2-------2--2-------|--2--2-------2--2--4----|
------------------------|------------------------|------------------------|


  E  E  Q    E  E  Q       E  E  Q    E  E  Q       E  E  Q    E  E  Q     
------------------------|------------------------|--------4----------4----|
--------4----------4----|--------4---------------|--2--2-------2--2-------|
--2--2-------2--2-------|--2--2-------2--2--4----|------------------------|
------------------------|------------------------|------------------------|


  E  E  E  E  E  E  E  E     Q    Q    E  E  E  E   
--------4--6--4--------4--|------------------1-----|
--2--2-----------4--2-----|--2------------2-----2--|
--------------------------|------------------------|
--------------------------|------------------------|


  E  E  Q    E  E  Q       E  E  Q    E  E  Q     
--------4----------4----|------------------------|
--2--2-------2--2-------|--------4----------4----|
------------------------|--2--2-------2--2-------|
------------------------|------------------------|


  E  E  E  E  E  E  E  E     E  E  Q    E  E  E  E   
--------------------------|-------------------------|
--------4--6--4--2-----4--|--------4-------2-----4--|
--2--2--------------4-----|--2--2-------------2-----|
--------------------------|-------------------------|


  Q    Q    Q    Q       E  E  Q    E  E  Q       E  E  E  E  E  E  Q     
----------------------|--------4---------------|--------------------4----|
--4--------------1----|--2--2-------2--2-------|--------------2--2-------|
-------2----4---------|------------------------|--------2--2-------------|
----------------------|-------------------4----|--0--0-------------------|


  E  E  Q    E  E  Q       E  E  Q    E  E  Q       E  E  Q    E  E  Q     
--------4----------4----|--------4---------------|------------------------|
--2--2-------2--2-------|--2--2-------2--2--4----|--------4----------4----|
------------------------|------------------------|--2--2-------2--2-------|
------------------------|------------------------|------------------------|


  E  E  E  E  E  E  E  E     E  E  Q    E  E  Q     
--------------------------|------------------------|
--------4--6--4--2-----4--|--------4----------4----|
--2--2--------------4-----|--2--2-------2--2-------|
--------------------------|------------------------|


  E  E  E  E  E  E  E  E     E  E  Q    E  E  Q     
--------------------------|--------4----------4----|
--------4--6--4--2-----4--|--2--2-------2--2-------|
--2--2--------------4-----|------------------------|
--------------------------|------------------------|


  E  E  Q    E  E  Q       E  E  Q    E  E  Q       E  E  Q    E  E  Q     
--------4----------4----|--------0----------2----|--------4----------4----|
--2--2-------2--2-------|------------------------|--2--2-------2--2-------|
------------------------|--3--3-------5--5-------|------------------------|
------------------------|------------------------|------------------------|


  E  E  Q    E  E  Q       E  E  Q    E  E  Q     
--------0----------2----|------------------------|
------------------------|--------4----------4----|
--3--3-------5--5-------|--2--2-------2--2-------|
------------------------|------------------------|


  E  E  E  E  E  E  E  E     E  E  Q    E  E  Q     
--------------------------|------------------------|
--------4--6--4--2--------|--------2----------2----|
--2--2--------------2--2--|--0--0-------0--0-------|
--------------------------|------------------------|


  E  E  Q    E  E  Q       E  E  Q    E  E  Q       E  E  Q    E  E  Q     
------------------------|--------4----------4----|--------4----------4----|
--------4----------4----|--2--2-------2--2-------|--2--2-------2--2-------|
--2--2-------2--2-------|------------------------|------------------------|
------------------------|------------------------|------------------------|


  E  E  Q    E  E  Q       E  E  Q    E  E  Q       E  E  Q    E  E  Q     
------------------------|------------------------|--------4----------4----|
--------2----------2----|--------4----------4----|--2--2-------2--2-------|
--0--0-------0--0-------|--2--2-------2--2-------|------------------------|
------------------------|------------------------|------------------------|


  E  E  Q    E  E  Q       E  E  Q    E  E  Q       E  E  Q    E  E  Q     
--------4----------4----|------------------------|------------------------|
--2--2-------2--2-------|--------2----------2----|--------4----------4----|
------------------------|--0--0-------0--0-------|--2--2-------2--2-------|
------------------------|------------------------|------------------------|


  E  E  E  E  E  E  E  E     E  E  Q    E  E  Q     
--------------------------|------------------------|
--------1-----5--1--------|--------2----------2----|
--3--3-----3--------3--3--|--0--0-------0--0-------|
--------------------------|------------------------|


  E  E  Q    E  E  Q       E  E  Q    E  E  Q       E  E  Q    E  E  Q     
--------4----------4----|------------------------|--------4----------4----|
--2--2-------2--2-------|--------4----------4----|--2--2-------2--2-------|
------------------------|--2--2-------2--2-------|------------------------|
------------------------|------------------------|------------------------|


  E  E  Q    E  E  Q       Q    Q    E  E  E  E     E  E  Q    E  E  Q     
------------------------|------------------1-----|--------4----------4----|
--------4----------4----|--2------------2-----2--|--2--2-------2--2-------|
--2--2-------2--2-------|------------------------|------------------------|
------------------------|------------------------|------------------------|


  E  E  Q    E  E  Q       E  E  E  E  E  E  E  E   
------------------------|--------------------------|
--------4----------4----|--------4--6--4--2-----4--|
--2--2-------2--2-------|--2--2--------------4-----|
------------------------|--------------------------|


  E  E  Q    E  E  E  E     Q    Q    Q    Q       E  E  Q    E  E  Q     
-------------------------|----------------------|--------4---------------|
--------4-------2-----4--|--4--------------1----|--2--2-------2--2-------|
--2--2-------------2-----|-------2----4---------|------------------------|
-------------------------|----------------------|-------------------4----|


  E  E  E  E  E  E  Q       E  E  Q    E  E  Q     
--------------------4----|--------4----------4----|
--------------2--2-------|--2--2-------2--2-------|
--------2--2-------------|------------------------|
--0--0-------------------|------------------------|


  E  E  Q    E  E  Q       E  E  Q    E  E  Q     
--------4---------------|------------------------|
--2--2-------2--2--4----|--------4----------4----|
------------------------|--2--2-------2--2-------|
------------------------|------------------------|


  E  E  E  E  E  E  E  E     E  E  Q    E  E  Q     
--------------------------|------------------------|
--------4--6--4--2-----4--|--------4----------4----|
--2--2--------------4-----|--2--2-------2--2-------|
--------------------------|------------------------|


  E  E  E  E  E  E  E  E     E  E  Q    E  E  Q     
--------------------------|--------4----------4----|
--------4--6--4--2-----4--|--2--2-------2--2-------|
--2--2--------------4-----|------------------------|
--------------------------|------------------------|


  E  E  E  E  E  E  Q       W                  
--2--2--1--1-------------|-------------------||
--------------4--4--2----|--L----------------||
-------------------------|-------------------||
-------------------------|-------------------||




Duration Legend
---------------
W - whole
H - half
Q - quarter
E - 8th
S - 16th
T - 32nd
X - 64th
. - note dotted
|-n-|  - n-tuplets


Tablature Legend
----------------
L - tied note
x - dead note
g - grace note
(n) - ghost note
> - accentuded note
NH - natural harmonic
AH - artificial harmonic
TH - tapped harmonic
SH - semi harmonic
PH - pitch harmonic
h - hammer on
p - pull off
b - bend
br - bendRelease
pb - preBend
pbr - preBendRelease
brb - bendReleaseBend
\n/ - tremolo bar dip
\n - tremolo bar dive
-/n - tremolo bar Release up
/n\ - tremolo bar inverted dip
/n - tremolo bar return
-\n - tremolo bar Release down
S - shift slide
s - legato slide
/ -  slide into from below or out of upwards
\ -  slide into from above or out of downwards
~ - vibrato
W - wide vibrato
tr - trill
TP - tremolo picking
T - tapping
S - slap
P - pop
< - fade in
^ - brush up
v - brush down

            
            
Suggest correction
Creating personal tab
Creating personal tab
You can edit any tab online and save it as your Personal.

You can edit, replace or remove any tab part or add personal notes – all changes will be seen only by you.

Personal tabs can be accessed anytime from any device, even offline.
Learn more »
Give kudos to tab author, rate the tab!
1 2 3 4 5
comments
print report bad tab
guest
Wanna post a correction for this tab? Suggest correction