Oops, an error
Loading. Please wait.
We have Chord Pro version of Stuck In The Middle With You.
It's the closest thing you can get to the original song and it has interactive parts. Check out the tab »
×
106,722 views 444 this week
7 commentsread comments
1 2 3 4 5
x 38
add to favorites
×
Save as Personal and add changes to this tab that will be seen only by you. Learn more ›
×
You can save this tab as Personal to edit and correct it or add notes. All changes will be seen only by you. Learn more »
launch autoscroll
font size
0
reset
how to read this tab
guitar tuner
edit
Autoscroll
slow
fast
+/-
esc
set tempo
stop
-------------------------------------------------------------------------------
                             STUCK IN THE MIDDLE WITH YOU - Stealers Wheel
-------------------------------------------------------------------------------
Tabbed by: Hunter Harpole
E-mail: dartjuice@gmail.com

I am making this tab because everyone so far has it wrong.  Even the how-to videos on 
youtube all have a couple chords that are off.  So this is for all who want to play this 
song correctly.

Tuning: Standard


Chords used:

    D   G7   A7  C   G A7sus4
e|---2---1---0---0---3---3------|
B|---3---0---2---1---0---3------|
G|---2---0---0---0---0---0------|
D|---0---0---2---2---0---2------|
A|---0---2---0---3---2---0------|
E|-------3-----------3----------|


[Intro]

e|-x-x-x-0-0-0-0-0-0-0---|
B|-7-7-5-3-1-1-1-0-1-0---|
G|-7-7-5-4-2-2-2-2-2-2-2-|  X2
D|-0-0-0-0-0-0-0-0-0-0-0-|
A|-----------------------|
E|-----------------------|


[Verse]

D
Well, I don't know why I came here tonight.
D
I got a feeling that something ain't right.
G7
I'm so scared in case I fall off my chair.
D
and I'm wondering how I'll get down those stairs.
A7                     C            G          D
Clowns to left of me, jokers to the right, here am I stuck in the middle with you.


[Chorus]

           G                                                                 D
Well, you started off with nothing and you're proud that you're a self-made man.
           G                                                              D    A7sus4
And your friends they all come crawling, slap you on the back and say, please, please.


[Slide Guitar Fills]

e|----------5----------5---------------------10-------10--------------10----------|
B|-6/7-6/7----6/7/6/7----6/7----11/12-11/12----11/12----12-----11/12----12--------|
G|-6/7-6/7----6/7/6/7----6/7----11/12-11/12----11/12-------12--11/12-------12-----|
D|--------------------------------------------------------------------------------|
A|--------------------------------------------------------------------------------|
E|--------------------------------------------------------------------------------|

e|--------12-------12-------10---------10--------|
B|-13/14-----13/14----11/12-----11/12-----12-----|
G|-13/14-----13/14----11/12-----11/12-----12-----|
D|-----------------------------------------------|
A|-----------------------------------------------|
E|-----------------------------------------------|


************************************

| /  Slide up

************************************

            
            
Suggest correction
Creating personal tab
Creating personal tab
You can edit any tab online and save it as your Personal.

You can edit, replace or remove any tab part or add personal notes – all changes will be seen only by you.

Personal tabs can be accessed anytime from any device, even offline.
Learn more »
comments
print report bad tab
7 comments total. Showing first comments.
0 reply
BraydenLeske 10 Dec 01, 2014 12:05 AM

Intro:

E --------------
B -3-3--1-0--1--
G -2-2--2-2--2--
D -0-0--0-0--0--
A --------------
E --------------

0 reply
dartjuice 178 Jan 09, 2015 04:56 PM

No Brayden. I had it right.

0 reply
aeroflight13 10 May 27, 2015 05:31 AM

INTRO:
e|-2-2-0-0-2-2-2-2-2-2-|
B|-3-3-1-0-1-1-1-0-1-0-|
G|-2-2-0-0-2-2-2-2-2-2-| X2
D|-----2-2-------------|
A|-----0-0-------------|
E|---------------------|

I think your intro is right but isn't it missing the extra bit at the end here?

guest
You may want to rate the tab now too:
select rating
Wanna post a correction for this tab? Suggest correction