Oops, an error
Loading. Please wait.

Asian Hooker bass

version 1
version 1

Whole song

Interactive

9,991 views 15 this week
3 commentsread comments
1 2 3 4 5
x 8
add to favorites
×
Save as Personal and add changes to this tab that will be seen only by you. Learn more ›
×
You can save this tab as Personal to edit and correct it or add notes. All changes will be seen only by you. Learn more »
launch autoscroll
font size
0
reset
guitar tuner
backing track
0:00
0:00
edit
Autoscroll
slow
fast
+/-
esc
set tempo
stop
Steel Panther – Asian Hooker

[Intro]
   (00:04)
Gb|---------------------------------|----------------------------------|
Db|---------------------------------|----------------------------------|
Ab|----–2-2-3-3-0-0-2-2----—0-0-----|-----2-2-3-3-0-0-2-2--------------| x2
Eb|-0-0-----------------3-3---—-2-2-|-0-0-----------------3-3-6-7-6-7--|


[Verse 1]
   (00:18)
Gb|-----------------------------|-----------------------------|------------------------------|
Db|-----------------------------|-----------------------------|------------------------------|
Ab|-------------5---5-5-5-5-5-7-|-----------------6-7-9-7-6---|-------------5---5-5-5-5-5-5--|
Eb|-0-0---3-3-------------------|-0-0---3-3---7-7-----------7-|-0-0---3-3--------------------|

Gb|-------------------------------------|
Db|-------------------------------------|
Ab|-3-3-3-3-3-3---2---2-2-2/10-10-9-9---|
Eb|-------------------------------------|

Gb|-----------------------------|-----------------------------|------------------------------|
Db|-----------------------------|-----------------------------|------------------------------|
Ab|-------------5---5-5-5-5-5-7-|-----------------6---9---7-6-|-------------5---5-5-5-5-5-5--|
Eb|-0-0---3-3-------------------|-0-0---3-3---7-7---7---7-----|-0-0---3-3--------------------|

Gb|----------------------------------|
Db|----------------------------------|
Ab|-3-3-3-3-3-3---2---2-2-2-2-2-2-2--|
Eb|----------------------------------|


[Pre-chorus 1]
   (00:46)                                                           2 beats
Gb|-----------------------------|--------------------------------|------------------|
Db|-----------------------------|--------------------------------|------------------|
Ab|-----------------------------|--------------------------------|------------------|
Eb|-0000-0000-0000-0000-3-5-6-5-|-0000-0000-0000-0000-3--5--6--5-|-7-8-7-8-7-8-7-8--|


[Chorus 1]
   (00:56)
Gb|----------------------------|--------------------------------|
Db|-----------------4-5--4-----|--------------------------------|
Ab|-7--7--5-7-0-5-7--------7-5-|-3--3-3-----3/5--5-5-5--5-5-5---|
Eb|----------------------------|--------3-3---------------------|

Gb|----------------------------|--------------------------------|
Db|-----------------4-5--4-----|--------------------------------|
Ab|-7--7--5-7-0-5-7--------7-5-|-3--3-3-----3/5--5-5-5--6~------|
Eb|----------------------------|--------3-3---------------------|


[Pre-Verse]
   (01:10)
Gb|---------------------------------|----------------------------------|
Db|---------------------------------|----------------------------------|
Ab|----–2-2-3-3-0-0-2-2----—0-0-----|-----2-2-3-3-0-0-2-2--------------|
Eb|-0-0-----------------3-3---—-2-2-|-0-0-----------------3-3-6-7-6-7--|


[Verse 2]
   (01:17)
Gb|-----------------------------|-----------------------------|-------------------------------|
Db|-----------------------------|-----------------------------|-------------------------------|
Ab|-------------5---5-5-5-5-5-7-|-----------------6-7-9-7-6---|-------------5---5-5-5-5-5-5---|
Eb|-0-0---3-3-------------------|-0-0---3-3---7-7-----------7-|-0-0---3-3---------------------|

Gb|-------------------------------------|
Db|-------------------------------------|
Ab|-3-3-3-3-3-3---2---2-2-2/10-10-9-9---|
Eb|-------------------------------------|

Gb|---------------------------------------------------------------------------------------|
Db|---------------------------------------------------------------------------------------|
Ab|-------------5---5-5-5-5-5-7-----------------6---9---7-6-------------5---5-5-5-5-5-5---|
Eb|-0-0---3-3-------------------0-0---3-3---7-7---7---7-----0-0---3-3---------------------|

Gb|-----------------------------------|
Db|-----------------------------------|
Ab|-3-3-3-3-3-3---2---2-2-2-2-2-2-2---|
Eb|-----------------------------------|


[Pre-chorus 2]
   (01:45)
Gb|-----------------------------|--------------------------------|----------------------------------|
Db|-----------------------------|--------------------------------|----------------------------------|
Ab|-----------------------------|--------------------------------|----------------------------------|
Eb|-0000-0000-0000-0000-3-5-6-5-|-0000-0000-0000-0000-3--5--6--5-|-7-8-7-8-7-8-7-8--7---5---3---2---|


[Chorus 2]
   (01:57)
Gb|----------------------------|--------------------------------|
Db|-----------------4-5--4-----|--------------------------------|
Ab|-7--7--5-7-0-5-7--------7-5-|-3--3-3-----3/5--5-5-5--5-5-5---|
Eb|----------------------------|--------3-3---------------------|

Gb|----------------------------|--------------------------------|
Db|-----------------4-5--4-----|--------------------------------|
Ab|-7--7--5-7-0-5-7--------7-5-|-3--3-3-----3/5--5-5-5--6~------|
Eb|----------------------------|--------3-3---------------------|


[Breakdown]
   (02:15)
Gb|---------------------------------|----------------------------------|
Gb|---------------------------------|----------------------------------|
Ab|-2-2-2-2-2-2-2-2-3-3-3-3-3-3-3-3-|-5-5-5-5-5-5-5-5-6-6-6-6-6-6-6-6--|
Eb|---------------------------------|----------------------------------|

Gb|---------------------------------|----------------------------------|
Gb|---------------------------------|----------------------------------|
Ab|---------------------------------|----------------------------------|
Eb|-0-0-0-0-0-0-0-0-2-2-2-2-2-2-2-2-|-3-3-3-3-3-3-3-3-6-6-6-6-6-6-6-6--|

Gb|---------------------------------|----------------------------------|
Gb|---------------------------------|----------------------------------|
Ab|-2-2-2-2-2-2-2-2-3-3-3-3-3-3-3-3-|-5-5-5-5-5-5-5-5-6-6-6-6-6-6-6-6--|
Eb|---------------------------------|----------------------------------|

Gb|---------------------------------|---------------------------------|------------------------------|
Gb|---------------------------------|---------------------------------|------------------------------|
Ab|---------------------------------|---------------------------------|------------------------------|
Eb|-0-0---0-0-0---0-2-2---2-2-2---2-|-3-3---3-3-3---3-6-6-6-6-6-6-6-6-|-7---5---3---2---0------0~----|


[Guitar Solo]
   (02:51)
Gb|---------------------------------|----------------------------------|
Gb|---------------------------------|----------------------------------|
Ab|-2-2-2-2-2-2-2-2-3-3-3-3-3-3-3-3-|-5-5-5-5-5-5-5-5-6-6-6-6-6-6-6-6--|
Eb|---------------------------------|----------------------------------|

Gb|---------------------------------|----------------------------------|
Gb|---------------------------------|----------------------------------|
Ab|---------------------------------|----------------------------------|
Eb|-0-0---0-0-0---0-2-2---2-2-2---2-|-3-3---3-3-3---3-6-6---6-6-6---6--|

Gb|---------------------------------|---------------------------------|-----------------------------|
Gb|---------------------------------|---------------------------------|-----------------------------|
Ab|-2-2-2-2-2-2-2-2-3-3-3-3-3-3-3-3-|-5-5-5-5-5-5-5-5-6-6-6-6-6-6-6-6-|-7-------5-------3-------2~--|
Eb|---------------------------------|---------------------------------|-----5-------3-------2-------|


[Last Chorus]
   (03:24)
Gb|---------------------------|--------------------------------|
Db|---------------------------|--------------------------------|
Ab|--rest---------------------|-3--3-3-----3/5--5-5-5--5-5-5---|
Eb|---------------------------|--------3-3---------------------|

Gb|----------------------------|-------------------------------|
Db|-----------------4-5--4-----|-------------------------------|
Ab|-7--7--5-7-0-5-7--------7-5-|-3--3-3-----3/5--5-5-5--6-6-6--|
Eb|----------------------------|--------3-3--------------------|


[Outro]
   (03:35)
Gb|-------------------------|-------------------------|---------------------------------|
Db|-------------------------|-------------------------|---------------------------------|
Ab|-------------------------|-------------------------|---------------------------------|
Eb|-0--0--0--0--0--0--0--0--|-0--0--0--0--0--0--0--0--|/12--12--12--12--12--12--12--12--|

Gb|------------------------------|
Db|------------------------------|
Ab|-2-3-2-0-5-2-------5h7\-------|
Eb|------------3-2-0~------------|


**************************************************

| /  slide up
| \  slide down
| h  hammer-on
| p  pull-off
| ~  vibrato

**************************************************

            
            
Suggest correction
Creating personal tab
Creating personal tab
You can edit any tab online and save it as your Personal.

You can edit, replace or remove any tab part or add personal notes – all changes will be seen only by you.

Personal tabs can be accessed anytime from any device, even offline.
Learn more »
comments
print report bad tab
3 comments total.
+1 reply
kylehewitt0 10 Oct 11, 2013 11:51 AM

Wow so bad but thanks for the basics. I will post a correction.

+4 reply
kylehewitt0 10 Oct 11, 2013 12:41 PM

Steel Panther ? Asian Hooker
1/2 step down (D?,G?,C?,F?)
Intro (00:04)
F?|----------------------------------------------|
C?|----------------------------------------------|
G?|--?22-33-00-22?-00-------22-33-00-22----------| x2
D?|-00-----------33--22?--00-----------33-67-67--|

Verse (00:18)
F?|-------------------------------------------------|
C?|-------------------------------------------------|
G?|-------5~-5557---------67976-------5~-3~-2~-10-9-|
D?|-00-33--------00-33-7-7-----7-00-33--------------|

F?|------------------------------------------|
C?|------------------------------------------|
G?|------5~-5557---------6-9-76-----5~-3~-2~-|
D?|-00-33-------00-33-7-7-7-7--00-33---------|

Bridge (00:46)
F?|-----------------------------------------------------------------|
C?|-----------------------------------------------------------------|
G?|-----------------------------------------------------------------|
D?|-0000-0000-0000-0000-3565-0000-0000-0000-0000-3-5-6-5-78787878---|

Chorus (00:56)
F?|---------------------------------------------|
C?|-----------454----------------454------------|
G?|-7757---057---75--3-5-7757-057---75-3-5-5-2~-| x2
D?|-------------------3-----------------3-------|

Intro x1 (01:10)
Verse x1 (01:17)

Bridge x1 (01:45)
F?|-----------------------------------------------------------------------|
C?|-----------------------------------------------------------------------|
G?|-----------------------------------------------------------------------|
D?|-0000-0000-0000-0000-3565-0000-0000-0000-0000-3-5-6-5-78787878--7-5-3-2|

Chorus x2 (01:57)

Breakdown (02:15)
F?|-----------------------------|
C?|-----------------------------|
G?|-2356------2356--------------|
D?|------0236------0236-7532-0--|

Solo (02:51)

F?|----------------------------------------------|
C?|----------------------------------------------|
G?|-2356------2356----------------7---5---3---2--|
D?|------0236-----------------------5---3---2----|

Chorus x1(03:24)

Outro (03:35)
F?|----------------------------------------------------------------|
C?|----------------------------------------------------------------|
G?|----------------------------------------------------------------|
D?|-0-0-0-0-0-0-0-0-0-0-0-0-0-0-0-0-0/12-1-12-12-12-12-12-12-12-12-|

F?|----------------------------|
C?|----------------------------|
G?|-3-2-0-5-2-------5h7\-------|
D?|----------3-2-0~------------|

0 reply
xxxxChrisTxxxx [tm] 10,250 Dec 05, 2017 01:17 PM

Tab corrected using this as basis.

guest
You may want to rate the tab now too:
select rating
Wanna post a correction for this tab? Suggest correction