Oops, an error
Loading. Please wait.

Black Cow bass

version 1
version 1

Whole song

Interactive

1,819 views 15 this week
no commentswrite comment
1 2 3 4 5
2 more votes to show rating
add to favorites
×
Save as Personal and add changes to this tab that will be seen only by you. Learn more ›
×
You can save this tab as Personal to edit and correct it or add notes. All changes will be seen only by you. Learn more »
launch autoscroll
font size
0
reset
guitar tuner
edit
Autoscroll
slow
fast
+/-
esc
set tempo
stop
Author
Difficulty
                                     Black Cow
                                    Steely  Dan

Bass                                                              Donald Fagen
                                                                 Walter Becker
As played by Chuck Rainey


In 2/2

Intro
                                                                         x4
||-/7---------------|-----------------|-----------------|------------------||
||o-----------------|-----------------|/7---------------|-----------------o||
||o-------3-----3---|-----------------|-------3-----3---|-----------------o||
||------------------|-----------------|-----------------|------------------||
    Q.    Q.    Q     W                 Q.    Q.    Q     W

Verse 1

|-----------------|---------5-------|-----------------|---------5-------|
|-----------------|-----------------|-----------------|-----------------|
|-3-----3-----3---|-------3-----3---|-3-----3-----3---|-------3-----3---|
|-----------------|-----------------|-----------------|-----------------|
  Q   E Q   E Q     Q.    E E E Q     Q   E Q   E Q     Q.    E Q   Q   

|-----------------|-----------------|-----------------|-----------------|
|-----------------|-----------------|-----------------|-----------------|
|-3-----3-----3---|-------3---------|-3-----3-----3---|-----------------|
|-----------------|---------3-------|---------------5-|(5)--------------|
  Q   E Q   E Q     Q.    E E.Q   S   Q   E Q   E E E   W  

|-----------------|---------7-------|-----------------|---------9-------|
|-----------------|-----------------|-----------------|-----------------|
|-5-----5-----5---|-------5-----5---|-------7-----7---|-------7-----7---|
|-----------------|-----------------|-0---------------|-----------------|
  Q   E Q   E Q     Q.    E Q   Q     Q   E Q   E Q     Q.    E Q   Q   

|-----------------|---------8-------|
|-----------------|-----------------|
|-6-----6-----6---|-------6-----6---|
|-----------------|-----------------|
  Q   E Q   E Q     Q.    E Q   Q 

|-----------------|---------5-------|-----------------|---------5-------|
|-----------------|-----------------|-----------------|-----------------|
|-3-----3-----3---|-------3-----3---|-3-----3-----3---|-------3-----3---|
|-----------------|---------------3-|-----------------|-----------------|
  Q   E Q   E Q     Q.    E E E E E   Q   E Q   E Q     Q.    E Q   Q   

|-----------------|---------5-------|-----------------|-----------------|
|-----------------|-----------------|-----------------|-----------------|
|-3-----3-----3---|-------3-----3---|-3-----3-----3---|-----------------|
|-----------------|-----------------|---------------5-|(5)--------------|
  Q   E Q   E Q     Q.    E Q   Q     Q   E Q   E E E   W  

|-----------------|-----------------|-----------------|---------9-------|
|-----------------|-----------------|-----------------|-----------------|
|-5-----5-----5---|-------5-5---5---|-----------------|-------7-----7---|
|-----------------|-----------------|-0-----0-----0---|-----------------|
  Q   E Q   E Q     Q.    E Q   Q     Q   E Q   E Q     Q.    E Q   Q   

|-----------------|-----------------|-----------------|---------9-------|
|-----------------|-----------------|-----------------|-----------------|
|-6-----6-----6---|-------------6---|-7-----7-----7---|-------7-----7---|
|-----------------|-----------------|-----------7-----|-----------------|
  Q   E Q   E Q     H       Q   Q     Q   E Q   E Q     Q.    E Q   Q   

|-----------------|---------9-------|
|-----------------|-----------------|
|-------7-----7---|-------7-----7---|
|-0---------7-----|-----------------|
  Q   E Q   E Q     Q.    E Q   Q

Chorus 1

|-----------------|-----------------|-----------------|-----------------|
|-----------------|-----------------|-----------------|---------7-------|
|-----------------|-----------------|-----------------|-----7---------7-|
|-5-----5-----5---|-0---0---5-----x-|-5-----5---0-5---|-----------------|
  Q   E Q   E Q     Q   Q   Q.    E   Q   E Q   E Q     Q   Q   Q.    E

|-----------------|-----------------|-----------------|-----------------|
|-----------------|-----------------|-----------------|-----------------|
|-5-----5-----5---|---------5-------|-----------------|-----------------|
|-----------------|-----5---------5-|-5-----5-----5---|---------3-------|
  Q   E Q   E Q     Q   Q   Q.    E   Q   E Q   E Q     H       H

|-----------------|-----------------|-----------------|-----------------|
|-----------------|-----------------|-2-----------1---|(1)--------------|
|-----------------|-----------------|-----------------|-----------------|
|-2-----2-----2---|-----2-----------|-----------------|-----------------|
  Q   E Q   E Q     Q   H.            H.          Q     W               

|-----------------|-----------------|-----------------|-----------------|
|-2---------------|-----------------|-4-----2-----0---|(0)--------------|
|-------------4---|(4)--------------|-----------------|-----------------|
|-----------------|-----------------|-----------------|-----------------|
  H.          Q     W                 Q   E Q   E Q     W               

|-----------------|---------7-------|-----------------|-----------------|
|-----------------|-----------------|-----------------|---------7-------|
|-5-----5-----5---|-------5-----5---|-5-----5-----5---|-------5-----5---|
|-----------------|-----------------|-----------------|-----------------|
  Q   E Q   E Q     Q.    E Q   Q     Q   E Q   E Q     Q.    E Q   Q   

|-----------------|---------10------|-----------------|-----------------|
|-----------------|-----------------|-----------------|-----------------|
|-8-----8-----8---|-------8-----8---|-8-----8-----8---|-----------------|
|-----------------|-----------------|-----------------|-----6-----7-----|
  Q   E Q   E Q     Q.    E Q   Q     Q   E Q   E Q     Q   Q.    Q.

Verse 2

|-----------------|---------5-------|-----------------|---------5-------|
|-----------------|-----------------|-----------------|-----------------|
|-3-----3-----3---|-------3-----3---|-3-----3-----3---|-------3-----3---|
|-----------------|-----------------|-----------------|-----------------|
  Q   E Q   E Q     Q.    E Q   Q     Q   E Q   E Q     Q.    E Q   Q   

|-----------------|---------5-------|-----------------|-----------------|
|-----------------|-----------------|-----------------|-----------------|
|-3-----3-----3---|-------3-----3---|-3-----3-----3---|-----------------|
|-----------------|-----------------|---------------5-|(5)--------------|
  Q   E Q   E Q     Q.    E Q   Q     Q   E Q   E E E   W  

|-----------------|---------7-------|-----------------|---------9-------|
|-----------------|-----------------|-----------------|-----------------|
|-5-----5-----5---|-------5-----5---|-------------7---|-------7-----7---|
|-----------------|-----------------|-0-----0---------|-----------------|
  Q   E Q   E Q     Q.    E Q   Q     Q   E Q   E Q     Q.    E Q   Q   

|-----------------|---------8-------|
|-----------------|-----------------|
|-6-----6-----6---|-------6-----6---|
|-----------------|-----------------|
  Q   E Q   E Q     Q.    E Q   Q 

|-----------------|---------5-------|-----------------|-----------------|
|-----------------|-----------------|-----------------|-------5-7---5---|
|-3-----3-----3---|-------3-----3---|-3-----3-----3---|-----------------|
|-----------------|-----------------|-----------------|-----------------|
  Q   E Q   E Q     Q.    E Q   Q     Q   E Q   E Q     Q.    E Q   Q   

|-----------------|---------5-------|-----------------|-----------------|
|-----------------|-----------------|-----------------|-----------------|
|-3-----3-----3---|-------3-----3---|-3-----3-----3---|-----------------|
|-----------------|-----------------|---------------5-|(5)--------------|
  Q   E Q   E Q     Q.    E Q   Q     Q   E Q   E E E   W  

|-----------------|-----------------|-----------------|---------9-------|
|-----------------|-----------------|-----------------|-----------------|
|-5-----5-----5---|-------5-5---5---|-------7-----7---|-------7-----7---|
|-----------------|-----------------|-0---------------|-----------------|
  Q   E Q   E Q     Q.    E Q   Q     Q   E Q   E Q     Q.    E Q   Q   

|-----------------|---------8-------|-----------------|-----------------|
|-----------------|-----------------|-----------------|-----------------|
|-6-----6-----6---|-------6-----6---|-7-----7-----7---|-------7---------|
|-----------------|-----------------|-----------------|-0-----------0---|
  Q   E Q   E Q     Q.    E Q   Q     Q   E Q   E Q     Q.    Q.    Q   

|-----------------|-----------------|
|-----------------|-----------------|
|-7-----7---7-----|---------7-------|
|-------------0---|-0---0-0-----0---|
  Q   E Q   E Q     Q   E E Q   Q

Chorus 2

|-----------------|-----------------|-----------------|-----------------|
|-----------------|-----------------|-----------------|-----5---7-------|
|-----------------|-----------------|-----------------|-----------------|
|-5-----5-----5---|-------5-0-----x-|-5-----5---0-5---|---------------5-|
  Q   E Q   E Q     Q.    E Q.    E   Q   E Q   E Q     Q   Q   Q.    E

|-----------------|-----------------|-----------------|-----------------|
|-----------------|-----------------|-----------------|-----------------|
|-5-----5-----5---|-----3---5-------|-----------------|-----------------|
|-----------------|---------------5-|-5-----5-----5---|-------5-3-------|
  Q   E Q   E Q     Q   Q   Q.    E   Q   E Q   E Q     Q.    E H

|-----------------|-----------------|-----------------|-----------------|
|-----------------|-----------------|-2-----------1---|(1)--------------|
|-----------------|-----------------|-----------------|-----------------|
|-2-----2-----2---|-----2-----------|-----------------|-----------------|
  Q   E Q   E Q     Q   H.            H.          Q     W               

|-----------------|-----------------|-----------------|-----------------|
|-2---------------|-----------------|-4-----2-----0---|(0)--------------|
|-------------4---|(4)--------------|-----------------|-----------------|
|-----------------|-----------------|-----------------|-----------------|
  H.          Q     W                 Q   E Q   E Q     W               

|-----------------|-----5---7-------|-----------------|-----5---7-------|
|-----------------|-----------------|-----------------|-----------------|
|-5-----5-----5---|---5-------------|-5-----5-----5---|---5-------------|
|-----------------|-----------------|-----------------|-----------------|
  Q   E Q   E Q     E E Q   H         Q   E Q   E Q     E E Q   H       

|-----------------|-----8---10------|-----------------|---------10------|
|-------------10--|-----------------|-------------10--|-----------------|
|-8-----8---------|---8-------------|-8-----8---------|-8---------------|
|-----------------|-----------------|-----------------|-----------------|
  Q   E Q   E Q     E E Q   H         Q   E Q   E Q     H       H

Solo

|-----------------|-----------------|-----------------|-----------------|
|-----------------|---------3-------|-5-----5-----5---|---5-------------|
|-----------------|-----5-----------|-----------------|-----5---2-------|
|-3-----3-----3---|---3-------------|-----------------|-----------------|
  Q   E Q   E Q     E E Q   H         Q   E Q   E Q     E E Q   H

|-----------------|-----------------|-----------------|-----------------|
|-----------------|---------3-------|-5-----5-----5---|-----------------|
|-----------------|-----5-----------|-----------------|---3-5-----------|
|-3-----3-----3---|---3-------------|-----------------|---------3-------|
  Q   E Q   E Q     E E Q   H         Q   E Q   E Q     E E Q   H

|-----------------|-----------------|-----------------|-----------------|
|-----------------|-----------------|-7-----7-----7---|-----------------|
|-----------------|---5-7---5-------|-----------------|---5-7---5-------|
|-5-----5-----5---|-----------------|-----------------|-----------------|
  Q   E Q   E Q     E E Q   H         Q   E Q   E Q     E E Q   H       

|-----------------|-----------------|-----------------|-----------------|
|-----------------|-----------------|-----------------|-----------------|
|-----------------|-5---------------|-1-----------1---|-1---------5-3---|
|-5---------------|-----------------|-----------------|-----------------|
  W                 W                 H.          Q     H       E E Q

|-----------------|-----------------|-----------------|-----------------|
|-----------------|---------7-------|-----------------|-----------------|
|-5-----5-----5---|-------5---------|-5-----5-----5---|-------------3-3-|
|-----------------|-------------5---|-----------------|-------3-5-------|
  Q   E Q   E Q     Q.    E Q   Q     Q   E Q   E Q     Q.    E Q   E E

|-----------------|-----------------|-----------------|-----------------|
|-----------------|-----------------|-----------------|-----------------|
|-5-----5-----5---|-------5-------3-|-5-----5-----5---|-------x-----5---|
|-----------------|---------5-------|-----------------|---------5-------|
  Q   E Q   E Q     Q.    E Q.    E   Q   E Q   E Q     Q.    E Q   Q

|-----------------|-----------------|-----------------|-----------------|
|-----------------|-----------------|-----------------|-------------2---|
|-7-----7-----7---|-------x-----7---|-----------------|---------2-------|
|-----------------|---------7-------|-0-----0-----0---|-------x---------|
  Q   E Q   E Q     Q.    E Q   Q     Q   E Q   E Q     Q.    E Q   Q

|-----------------|-2---------------|-----------------|-----------------|
|-3---------------|-----------------|-----------------|-----------------|
|-----------------|-----------------|-----------------|-----------------|
|-----------------|-----------------|-1-----------1---|-1---1-------1---|
  W                 W                 H.          Q     Q   Q   Q   Q

|-----------------|-----------------|-----------------|-----------------|
|-----------------|-----------------|-----------------|-----------------|
|-----------------|-----------------|-----------------|-----------------|
|-0-----0---0-0---|---0-0---0-------|-0-----0---0-0---|---0-0---2---4---|
  Q.    Q   E Q     E E Q   H         Q.    Q   E Q     E E Q   Q   Q
   Slap . . . . . . . . . . . . . . . . . . . . . . . . . . . . . . . .

Chorus 3

|-----------------|-----------------|-----------------|-----------------|
|-----------------|-----------------|-------------7---|-----5---7-------|
|-----------------|-----------------|-----------------|-----------------|
|-5-----5-----5---|-----0---5-------|-5-----5---5-----|---5-----------5-|
  Q   E Q   E Q     Q   Q   H         Q   E Q   E Q     E E Q   Q.    E

|-------------7---|-----5---7-------|-----------------|-----------------|
|-----------------|-----------------|-----------------|-----------------|
|-5-----5---------|---5-----------5-|-----------------|-----------------|
|-----------------|-----------------|-5-----5-----5---|-------5-3-------|
  Q   E Q   E Q     E E Q   Q.    E   Q   E Q   E Q     Q.    E H

|-----------------|-----------------|-----------------|-----------------|
|-----------------|-----------------|-2-----------1---|(1)--------------|
|-----------------|-----------------|-----------------|-----------------|
|-2-----2-----2---|-----2-----------|-----------------|-----------------|
  Q   E Q   E Q     Q   H.            H.          Q     W

|-----------------|-----------------|-----------------|-----------------|
|-2---------------|-----------------|-4-----2-----0---|(0)--------------|
|-------------4---|(4)--------------|-----------------|-----------------|
|-----------------|-----------------|-----------------|-----------------|
  H.          Q     W                 Q   E Q   E Q     W

Outro

|-----------------|-----------------|-----------------|-----------------|
|-----------------|-----------------|-----------------|-----5---7-------|
|-----------------|-----------------|-----------------|-----------------|
|-5-----------5---|-x-0-5---0-------|-5-----5-----5---|-----------------|
  H.          Q     E E Q   H         Q   E Q   E Q     Q   Q   H

|-----------------|-----------------|-----------------|-----------------|
|-----------------|-----------------|-----------------|-----------------|
|-5-----5-----5---|-----3---5-------|-----------------|-----------------|
|-----------5-----|---5-----------3-|-5-----5-----5---|-----3-----------|
  Q   E Q   E Q     E E Q   Q.    E   Q   E Q   E Q     Q   H

|-----------------|-----------------|-----------------|-----------------|
|-----------------|-----------------|-----------------|-----------------|
|-----------------|-----------------|-----------------|-----------------|
|-5-----5-----5---|---x-3---5-----5-|-5-----5---0-5---|---x-3---5-------|
  Q   E Q   E Q     E E Q   Q.    E   Q   E Q   E Q     E E Q   H

|-----------------|-----------------|-----------------|-----------------|
|-----------------|-----------------|-----------------|-----------------|
|-5-----5-----5---|-----3---5-------|-----------------|-----------------|
|-----------5-----|---5-----------3-|-5-----5---0-5---|-----3-----------|
  Q   E Q   E Q     E E Q   Q.    E   Q   E Q   E Q     Q   H

|-----------------|-----------------|-----------------|-----------------|
|-----------------|-----------------|-----------------|-----5---7-------|
|-----------------|-----------------|-----------------|-----------------|
|-5-----5---0-5---|-----3---5-------|-5-----5---0-5---|---5-----------5-|
  Q   E Q   E Q     Q   Q   H         Q   E Q   E Q     E E Q   Q.    E

|-----------------|-----------------|-----------------|-----------------|
|-----------------|-----------------|-----------------|-----------------|
|-5-----5-----5---|-----3---5-------|-----------------|-----------------|
|-----------5-----|---5-----------3-|-5-----5---0-5---|-----3-----------|
  Q   E Q   E Q     E E Q   Q.    E   Q   E Q   E Q     Q   H

|-----------------|-----------------|-----------------|-----------------|
|-----------------|-----------------|-----------------|-----5---7-------|
|-----------------|-----------------|-----------------|-----------------|
|-5-----5---0-5---|-----3---5-------|-5-----5---0-5---|---5-----------5-|
  Q   E Q   E Q     Q   Q   H         Q   E Q   E Q     E E Q   Q.    E

|-----------------|-----------------|-----------------|-----------------|
|-----------------|-----------------|-----------------|-----------------|
|-5-----5-----5---|-----3---5-------|-----------------|-----------------|
|-----------5-----|---5-----------3-|-5-----5---0-5---|-----3-----------|
  Q   E Q   E Q     E E Q   Q.    E   Q   E Q   E Q     Q   H


|-----------------|-----------------|-----------------|-----------------|
|-----------------|-----------------|-----------------|-----------------|
|-----------------|-----------------|-----------------|-----------------|
|-5-----5---0-5---|-----3---5-------|-5-----5---0-5---|---5-3---5-------|
  Q   E Q   E Q     Q   Q   H         Q   E Q   E Q     E E Q   H

|-----------------|-----------------|-----------------|-----------------|
|-----------------|-----------------|-----------------|-----------------|
|-5-----5-----5---|-----3---5-------|-----------------|-----------------|
|-----------5-----|---------------3-|-5-----5---0-5---|-----3-----------|
  Q   E Q   E Q     Q   Q   Q.    E   Q   E Q   E Q     Q   H


|-----------------|-----------------|-----------------|-----------------|
|-----------------|-----------------|-----------------|-----5---7-------|
|-----------------|-----------------|-----------------|-----------------|
|-5-----5---0-5---|---5-0---5-----5-|-5-----5---0-5---|---5-----------5-|
  Q   E Q   E Q     E E Q   Q.    E   Q   E Q   E Q     E E Q   Q.    E

|-----------------|-----------------|-----------------|-----------------|
|-----------------|-----------------|-----------------|-----------------|
|-5-----5-----5---|-----3---5-------|-----------------|-----------------|
|-----------5-----|---5-----------3-|-5-----5---0-5---|-----3-----------|
  Q   E Q   E Q     E E Q   Q.    E   Q   E Q   E Q     Q   H


|-----------------|-----------------|-----------------|-----------------|
|-----------------|-----------------|-----------------|-----------------|
|-----------------|-----------------|-----------------|-----2---0-------|
|-5-----5---0-5---|---5-0---5-----3-|-5-----5---0-5---|-------------0---|
  Q   E Q   E Q     E E Q   H         Q   E Q   E Q     Q   Q   Q   Q  

|-----------------|-----------------|-----------------|-----------------||
|-----------------|-----------------|-----------------|-----------------||
|-5-----5-----5---|-----3---5-------|-----------------|-----------------||
|-----------5-----|-----------------|-5-----5---0-5---|-----3-----------||
  Q   E Q   E Q     Q   Q   H         Q   E Q   E Q     Q   H


Key to rhythm notations:

W - Whole Note/Semi-Brieve
H - Half Note/Minim
Q - Quarter Note/Crotchet       Q. - Dotted Quarter Note
E - Eight Note/Quaver           E. - Dotted Eight Note
S - Sixteenth Note/Semi-Quaver  S. - Dotted Sixteenth Note

            
            
Suggest correction
Creating personal tab
Creating personal tab
You can edit any tab online and save it as your Personal.

You can edit, replace or remove any tab part or add personal notes – all changes will be seen only by you.

Personal tabs can be accessed anytime from any device, even offline.
Learn more »
Give kudos to tab author, rate the tab!
1 2 3 4 5
comments
print report bad tab
guest
You may want to rate the tab now too:
select rating
Wanna post a correction for this tab? Suggest correction