Oops, an error
Loading. Please wait.

Home At Last bass

1,441 views 3 this week
no commentswrite comment
1 2 3 4 5
x 5
add to favorites
×
Save as Personal and add changes to this tab that will be seen only by you. Learn more ›
×
You can save this tab as Personal to edit and correct it or add notes. All changes will be seen only by you. Learn more »
launch autoscroll
font size
0
reset
guitar tuner
edit
Autoscroll
slow
fast
+/-
esc
set tempo
stop
Author
Difficulty
                                    Home At Last
                                     Steely Dan

Bass                                                              Donald Fagen
                                                                 Walter Becker
As played by Chuck Rainey
       ___
      | 3 |
E E = Q   E

In 2/2

Intro  

|-----------------|-----------------|-----------------|-----------------|
|-----------------|-----------------|-----------------|-----------------|
|-----------------|-----------------|-----------------|-----------------|
|-----------------|-----------------|-----------------|---------5---6---|
  W                 W                 W                 H       Q   Q

|-----------------|-----------------|-----------------|-----------------|
|-----------------|-----------------|-----------------|-----------------|
|-----------------|-----------------|-----------------|-----------------|
|-3---------------|-----------------|-----------------|---------5---6---|
  Q   H.            W                 W                 H       Q   Q

|-----------------|-----------------|-----------------|-----------------|
|-----------------|--------/7---5---|-------------5-5-|-----------------|
|-------------5-5-|-------5---------|---------5-5-----|-----x-----------|
|-3-----3-6-6-----|-----------------|-3-----3---------|-------3-5---6---|
  Q.    E E E E E   Q.    E Q   Q     Q.    E E E E E   Q.  S S Q   Q

|-----------------|-----------------|-----------------|-----------------|
|-----------------|--------/7---5---|-------------5-5-|-----------------|
|-------------5-5-|-------5---------|---------5-5-----|-----x-----------|
|-3-----3-6-3-----|-----------------|-3-----3---------|-------3-5---6---|
  Q.    E E E E E   Q.    E Q   Q     Q.    E E E E E   Q.  S S Q   Q   

Verse 1

|---------8/10\-8-|---------3/5\--3-|---------8/10\-8-|---------3/5\--3-|
|-----------------|-----------------|-----------------|-----------------|
|-6-----6---------|-1-----1---------|-6-----6---------|-1-----1---------|
|-----------------|-----------------|-----------------|-----------------|
  Q.    E E Q   E   Q.    E E Q   E   Q.    E E Q   E   Q.    E E Q   E 
                           ___
                          | 3 |
|-----------------|-----------------|-----------------|-----------------|
|-----------------|-5-----6---------|-------------5-5-|-----------------|
|-6-------5-------|---------6-3-----|---------5-5-----|-----x-----------|
|-----------------|-------------4---|-3-----3---------|-------3-5---6---|
  H       H         H     E E E Q     Q.    E E E E E   Q.  S S Q   Q

|---------8/10\-8-|---------3/5\--3-|---------8/10\-8-|---------3/5\--3-|
|-----------------|-----------------|-----------------|-----------------|
|-6-----6---------|-1-----1---------|-6-----6---------|-1-----1---------|
|-----------------|-----------------|-----------------|-----------------|
  Q.    E E Q   E   Q.    E E Q   E   Q.    E E Q   E   Q.    E E Q   E 
                           ___
                          | 3 |
|-----------------|-----------------|-----------------|-----------------|
|-----------------|-5-----6---------|-----------------|-----------------|
|-6-------5-------|---------6-3-----|-----------------|-----------------|
|-----------------|-------------4---|-3---6---3---1-3-|(3)------3---6---|
  H       H         H     E E E Q     Q   Q   Q   E E   H       Q   Q

Chorus 1

|-------------------|-----------------|-------------------|-----------------|
|-------------------|-------------3---|-5-----5-------3---|-----------------|
|-3-----3-------3-1-|-3-3---3-6-6-----|---------1-1-----3-|-5-5---5---------|
|---------3-3-------|-----------------|-------------------|---------3---6---|
  Q.    E E E E S S   E E E E E E Q     Q.    E E E E S S   E E E E Q   Q

|-----------------|-----------------|-------------------|-7-7---7---------|
|-----------------|-----------------|---------7-7---7---|---------7-------|
|-3-----3-------1-|-3-3---3-6---3---|-5-5---5---------5-|-------------5---|
|---------3-3-----|-----------------|-------------------|-----------------|
  Q.    E E E E E   E E E E Q   Q     E E E E E E E S S   E E E E Q   Q

|-------------------|-----------------|-----------------|-7-7-------------|
|-------------------|-----------------|-----3-------5-3-|-------3-------1-|
|-3-----3-------3-1-|-3-3---3-----3---|-1-----3-5-------|---------1---1---|
|---------3-3-------|---------3-------|-----------------|-----------------|
  Q.    E E E E S S   E E E E Q   Q     Q.  S S Q.  S S   E E E E Q   E E

|-----------------|-----------------|-----------------|-----------------|
|(1)--------------|(1)--------------|-1---------------|(1)--------------|
|-----------------|-----------------|-----------------|-----------------|
|-----------------|-----------------|-----------------|-----------------|
  W                 W                 W                 W

Interlude 1

||------------------|-----------------|-----------------|------------------||
||o-----------------|--------/7---5---|-------------5-5-|-----------------o||
||o-------------5-5-|-------5---------|---------5-5-----|-----x-----------o||
||--3-----3-6-6-----|-----------------|-3-----3---------|-------3-5---6----||
    Q.    E E E E E   Q.    E Q   Q     Q.    E E E E E   Q.  S S Q   Q

Verse 2

|---------8/10\-8-|---------3/5\--3-|---------8/10\-8-|---------3/5\--3-|
|-----------------|-----------------|-----------------|-----------------|
|-6-----6---------|-1-----1---------|-6-----6---------|-1-----1---------|
|-----------------|-----------------|-----------------|-----------------|
  Q.    E E Q   E   Q.    E E Q   E   Q.    E E Q   E   Q.    E E Q   E 
                           ___
                          | 3 |
|-----------------|-----------------|-----------------|-----------------|
|-----------------|-5-----6---------|-------------5-5-|-----------------|
|-6-------5-------|---------6-3-----|---------5-5-----|-----x-----------|
|-----------------|-------------4---|-3-----3---------|-------3-5---6---|
  H       H         H     E E E Q     Q.    E E E E E   Q.  S S Q   Q

|---------8/10\-8-|---------3/5\--3-|---------8/10\-8-|---------3/5\--3-|
|-----------------|-----------------|-----------------|-----------------|
|-6-----6---------|-1-----1---------|-6-----6---------|-1-----1---------|
|-----------------|-----------------|-----------------|-----------------|
  Q.    E E Q   E   Q.    E E Q   E   Q.    E E Q   E   Q.    E E Q   E 
                           ___
                          | 3 |
|-----------------|-----------------|-----------------|-----------------|
|-----------------|-5-----6---------|-----------------|-----------------|
|-6-------5-------|---------6-3-----|-----------------|-----------------|
|-----------------|-------------4---|-3---6---3---1-3-|(3)------3---6---|
  H       H         H     E E E Q     Q   Q   Q   E E   H       Q   Q

Chorus 2

|-------------------|-----------------|-------------------|-----------------|
|-------------------|-----------------|-5-----5-------3---|-----------------|
|-3-----3-------3-1-|-3-3---3-1-1-----|---------1-1-----3-|-5-5---5---------|
|---------3-3-------|-------------1---|-------------------|---------3---6---|
  Q.    E E E E S S   E E E E E E Q     Q.    E E E E S S   E E E E Q   Q

|-------------------|-------------5---|---------7-7---7---|---------7-------|
|-------------------|-----------------|-----------------7-|-------7-----7---|
|-3-----3-------3-1-|-3-3---3-3-------|-5-----5-----------|-5-5-----------5-|
|---------3-3-------|-----------------|-------------------|-----------------|
  Q.    E E E E S S   E E E E Q   Q     Q   E E E E E S S   E E E E Q   E E

|-------------------|-----------------|-----------------|-7-7-------------|
|-------------------|-----------------|-----3-------5---|-------3-------1-|
|-3-----3-------3-1-|-3-3---3-----3---|-1-----3-5-----8-|---------1---1---|
|---------3-3-------|---------3-------|-----------------|-----------------|
  Q.    E E E E S S   E E E E Q   Q     Q.  S S Q.  S S   E E E E Q   E E

|-----------------|-----------------|-----------------|-----------------|
|(1)--------------|(1)--------------|-1---------------|(1)--------------|
|-----------------|-----------------|-----------------|-----------------|
|-----------------|-----------------|-----------------|-----------------|
  W                 W                 W                 W

Interlude 2

||------------------|-----------------|-----------------|------------------||
||o-----------------|--------/7---5---|-------------5-5-|-----------------o||
||o-------------5-5-|-------5---------|---------5-5-----|-----x-----------o||
||--3-----3-6-6-----|-----------------|-3-----3---------|-------3-5---6----||
    Q.    E E E E E   Q.    E Q   Q     Q.    E E E E E   Q.  S S Q   Q

Sax Solo

|---------10-10---|-----10----------|---------10------|-----10------------|
|-----------------|-----------------|-----------------|--------10---------|
|-8-8---8-------8-|(8)8----8------8-|(8)8-----------8-|(8)--------8---8---|
|-----------------|-----------------|-----------------|-------------------|
  E Q   E E  Q  E   E E E  H      E   E Q.    Q.    E   Q.  S  S  Q   Q

|-----------------|-----------------|-----------------|-----------------|
|-----------------|-------6---------|-----------------|-----------------|
|---------------5-|(5)--------------|-4-----------4-5-|(5)--------------|
|-----5-------5---|-----------------|-----------------|-----------------|
  Q   H       E E   Q.    E H         H.          S S   W

||------------------|-----------------|-----------------|------------------||
||o-----------------|--------/7---5---|-------------5-5-|-----------------o||
||o-------------5-5-|-------5---------|---------5-5-----|-----x-----------o||
||--3-----3-6-6-----|-----------------|-3-----3---------|-------3-5---6----||
    Q.    E E E E E   Q.    E Q   Q     Q.    E E E E E   Q.  S S Q   Q

Guitar Solo

|---------8/10\-8-|---------3/5\--3-|---------8/10\-8-|---------3/5\--3-|
|-----------------|-----------------|-----------------|-----------------|
|-6-----6---------|-1-----1---------|-6-----6---------|-1-----1---------|
|-----------------|-----------------|-----------------|-----------------|
  Q.    E E Q   E   Q.    E E Q   E   Q.    E E Q   E   Q.    E E Q   E 
                           ___
                          | 3 |
|-----------------|-----------------|-----------------|-----------------|
|-----------------|-5-----6---------|-------------5-5-|-----------------|
|-6-------5-------|---------6-3-----|---------5-5-----|-----x-----------|
|-----------------|-------------4---|-3-----3---------|-------3-5---6---|
  H       H         H     E E E Q     Q.    E E E E E   Q.  S S Q   Q

|---------8/10\-8-|---------3/5\--3-|---------8/10\-8-|---------3/5\--3-|
|-----------------|-----------------|-----------------|-----------------|
|-6-----6---------|-1-----1---------|-6-----6---------|-1-----1---------|
|-----------------|-----------------|-----------------|-----------------|
  Q.    E E Q   E   Q.    E E Q   E   Q.    E E Q   E   Q.    E E Q   E 
                           ___
                          | 3 |
|-----------------|-----------------|-----------------|-----------------|
|-----------------|-5-----6---------|-----------------|-----------------|
|-6-------5-------|---------6-3-----|-----------------|-----------------|
|-----------------|-------------4---|-3---6---3---1-3-|(3)------3---6---|
  H       H         H     E E E Q     Q   Q   Q   E E   H       Q   Q

Chorus 3

|-------------------|-----------------|-------------------|-----------------|
|-------------------|---------1-1-3---|-5-----5-------3---|-----------------|
|-3-----3-------3-1-|-3-3---3---------|---------1-1-----3-|-5-5---5---------|
|---------3-3-------|-----------------|-------------------|---------3---6---|
  Q.    E E E E S S   E E E E E E Q     Q.    E E E E S S   E E E E Q   Q

|-------------------|-----------------|---------7-7---7---|-----------------|
|-------------------|-----------------|-----------------7-|---------7-------|
|-3-----3-------3-1-|-3-----3-6---3---|-5-----5-----------|-5-5---5-----5---|
|---------3-3-------|-----------------|-------------------|-----------------|
  Q.    E E E E S S   Q.    E Q   Q     Q   E E E E E S S   E E E E Q   Q

|-------------------|-----------------|-----------------|-7---------------|
|-------------------|-----------------|-----3-------5---|-------3-----0-1-|
|-3-----3-------3-1-|-3-3---3-6---3---|-1-----3-5-----8-|---------1-------|
|---------3-3-------|-----------------|-----------------|-----------------|
  Q.    E E E E S S   E E E E Q   Q     Q.  S S Q.  S S   E E E E Q   E E

|-----------------|-----------------|-----------------|-----------------|
|(1)--------------|(1)--------------|-1---------------|(1)--------------|
|-----------------|-----------------|-----------------|-----------------|
|-----------------|-----------------|-----------------|-----------------|
  W                 W                 W                 W

Outro

||------------------|-----------------|-----------------|------------------||
||o-----------------|--------/7---5---|-------------5-5-|-----------------o||
||o-------------5-5-|-------5---------|---------5-5-----|-----x-----------o||
||--3-----3-6-6-----|-----------------|-3-----3---------|-------3-5---6----||
    Q.    E E E E E   Q.    E Q   Q     Q.    E E E E E   Q.  S S Q   Q

                                                             Repeat to fade
||------------------|-----------------|-----------------|------------------||
||o-----------------|--------/7---5---|-------------5-5-|-----------------o||
||o-----------3-5-5-|-------5---------|---------5-5-----|-----x-----------o||
||--3-----3-6-------|-----------------|-3-----3---------|-------3-5---6----||
    Q.    E E E E E   Q.    E Q   Q     Q.    E E E E E   Q.  S S Q   Q


Key to rhythm notations:

W - Whole Note/Semi-Brieve
H - Half Note/Minim
Q - Quarter Note/Crotchet       Q. - Dotted Quarter Note
E - Eight Note/Quaver           E. - Dotted Eight Note
S - Sixteenth Note/Semi-Quaver  S. - Dotted Sixteenth Note

            
            
Suggest correction
Creating personal tab
Creating personal tab
You can edit any tab online and save it as your Personal.

You can edit, replace or remove any tab part or add personal notes – all changes will be seen only by you.

Personal tabs can be accessed anytime from any device, even offline.
Learn more »
comments
print report bad tab
guest
You may want to rate the tab now too:
select rating
Wanna post a correction for this tab? Suggest correction