Oops, an error
Loading. Please wait.

Midnight Cruiser tab

568 views 1 this week
no commentswrite comment
1 2 3 4 5
3 more votes to show rating
add to favorites
×
Save as Personal and add changes to this tab that will be seen only by you. Learn more ›
×
You can save this tab as Personal to edit and correct it or add notes. All changes will be seen only by you. Learn more »
launch autoscroll
font size
0
reset
how to read this tab
guitar tuner
edit
Autoscroll
slow
fast
+/-
esc
set tempo
stop
Author
Difficulty
-------------------------------------------------------------------------------
                             Midnight Cruiser   Steely Dan
-------------------------------------------------------------------------------
Tabbed by:  tjmcbntmkr
E-mail:  tmeyerdc@gmail.com

Tuning:  standard
     Fe -  lonius  my old friend  step on in and let me shake your hand

    Am7      DM7  Bb9b5           Bb      Bb/A         Am        G2

e|---0--------1-----1-------0-------X------X------------0----------3-------------------|
B|---1--------1-----1-------1-------3------3------------1----------3-------------------|
G|---0--------2-----0-------0-------3------3------------2----------0-------------------|
D|---2--------0-----0-------0-------3------3------------2----------0-------------------|
A|--0--------0---0-1-------1-------1------0------------0-------------------------------|
E|-0------------------------------0--------x----------0-----------3--------------------|

    so glad you're here again    for one more time let your  madness run with

  Am7  D7sus2  Bb6b5     C+2   BbMaj                      Am           G

e|---0----0-----0--------0--------1-----------0------------0------------3------------------------|
B|---1----1-----3--------1--------3-----------3------------1------------3------------------------|
G|---0----2-----0--------0--------2-----------2------------2------------0------------------------|
D|---2----0-----0--------0--------3-----------3------------2------------0------------------------|
A|--0----0-----1--------3--------1------------0------------0-----------2-------------------------|
---0----0-----0--------0--------1------------------------------------3----------------------|0--|

     mine    streets still unseen we'll find somehow

    Gmin                    C          Gsus4   Gmin

e|---3-----------------------0-----------3------3--------------------------------|
B|---3-----------------------1-----------3------3--------------------------------|
G|---3-----------------------0-----------5------3--------------------------------|
D|---5-----------------------2-----------5------5--------------------------------|
A|---5-----------------------3-----------3------5--------------------------------|
E|---3-----------------------3-----------3------3--------------------------------|

      no time is better than now      tell   me

       Gm11        F        G          F      G

e|-------1----------1--------3----------1-----3-----------------------------------|
B|-------1----------1--------3----------1-----3-----------------------------------|
G|-------3----------2--------0----------2-----0-----------------------------------|
D|-------3----------3--------0----------3-----0-----------------------------------|
A|-------1----------3--------2----------3-----2-----------------------------------|
E|-------3----------1--------3----------1-----3-----------------------------------|


     where    are you driving midnight cruiser

        C                       G
 
e|-----0--0-----------0---0------3------3----3--------------------------------------|
B|-----1--1-----------1---1------3------3----3--------------------------------------|
G|-----0--0-----------0---0------0------0----0--------------------------------------|
D|-----0--2-----------3---2------0------2----0--------------------------------------|
A|-----3--3-----------0---3------2------0----2--------------------------------------|
E|-----3--3-----------3---3-----3-------3----3--------------------------------------|

     where is your bounty of fortune and fame

       Bb          +sus4       F       F6sus2

e|------------------------------1--------1-------------------------------------------|
B|--------3---------4-- 3-------1--------1-------------------------------------------|
G|--------3---------3---3-------2--------0-------------------------------------------|
D|--------3---------3---3-------3--------0-------------------------------------------|
A|-----1------------1---1-------3--------3-------------------------------------------|
E|------------------X---X------1---------3-------------------------------------------|

      I      am    another      gentleman loser

         C                      G

e|-----0--0-----------0---0------3------3----3--------------------------------------|
B|-----1--1-----------1---1------3------3----3--------------------------------------|
G|-----0--0-----------0---0------0------0----0--------------------------------------|
D|-----0--2-----------3---2------0------2----0--------------------------------------|
A|-----3--3-----------0---3------2------0----2--------------------------------------|
E|-----3--3-----------3---3------3------3----3--------------------------------------|


     take me to Harlem or somewhere the same

        Bb        +sus4        F                

e|------------------------------1--------0-------3------1-----3------0-------------------|
B|--------3---------4-- 3-------1--------1-------3------1-----3------1-------------------|
G|--------3---------3---3-------2--------2-------0------2-----0------2-------------------|
D|--------3---------3---3-------3--------2-------0------3-----0------2-------------------|
A|-----1------------1---1-------3--------0-------2------3-----2------0-------------------|
E|------------------X---X-------1--------0-------3------1-----3------0-------------------|

           /
e|---0--0------0--0-----0--0---0-----0--0-----7--5--|
B|---1--1------3--3-----5--5---3-----8--7-----8--7--|
G|---0--0------0--0-----5--5---0-----7--7-----7--0--|
D|---2--2------4--4-----5--5---5-----7--7-----0--0--|
A|----------------------------------0---------------|
E|--------------------------------------------------|


e|----0-------3-------------------------------------------------------------------|
B|----1h------0-------------------------------------------------------------------|
G|----0-------0-------------------------------------------------------------------|
D|----2-------2-------------------------------------------------------------------|
A|---0---------------------------------------------------------------------------|
E|-------------------------------------------------------------------------------|


************************************

| /   slide up
| \   slide down
| h   hammer-on
| p   pull-off
| ~   vibrato
| +   harmonic
| x   Mute note
| b   Bend
| pb  Pre-bend
| br  Bend release
| pbr Pre-bend release
| brb Bend release bend

************************************

            
            
Suggest correction
Creating personal tab
Creating personal tab
You can edit any tab online and save it as your Personal.

You can edit, replace or remove any tab part or add personal notes – all changes will be seen only by you.

Personal tabs can be accessed anytime from any device, even offline.
Learn more »
Give kudos to tab author, rate the tab!
1 2 3 4 5
comments
print report bad tab
guest
You may want to rate the tab now too:
select rating
Wanna post a correction for this tab? Suggest correction