Oops, an error
Loading. Please wait.

Activate tab

version 1
version 1

Whole song

Interactive

4,627 views 3 this week
8 commentsread comments
1 2 3 4 5
x 6
add to favorites
×
Save as Personal and add changes to this tab that will be seen only by you. Learn more ›
×
You can save this tab as Personal to edit and correct it or add notes. All changes will be seen only by you. Learn more »
launch autoscroll
font size
0
reset
how to read this tab
guitar tuner
edit
Autoscroll
slow
fast
+/-
esc
set tempo
stop
Author
Difficulty
Artist Stellar kart
Song  Activate
album We cant stand sitting down


Hey i hope yal like it.



Intro


Guitar 1


e-----------------------------------------------------------------------|
b-----------------------------------------------------------------------|
g---11-9-8-9-9h11--11-9-8-9-9h8--11-9-8-9-9h11--11-9-8h98h9-8-9h8-------|
d-----------------------------------------------------------------------|
a-----------------------------------------------------------------------|
e-----------------------------------------------------------------------|


Guitar 2

e-------------------------------------------------------------------|
b-------------------------------------------------------------------|
g-4-4-4----------------------------------4-4-4----------------------|
d-4-4-4---4-4-4---6-6-6---2-2-2----------4-4-4--4-4-4--2-2-2-2-2----|
a-2-2-2---4-4-4---6-6-6---2-2-2----------2-4-4--4-4-4--2-2-2-2-2----|
e---------2-2-2---4-4-4---0-0-0-----------------2-2-2--0-0-0-0-0----|


verse

Guitar 1


e-----------------------------------------------|
b-----------------------------------------------|
g--4-4--3-3--4-4--6-6------------4-4--6-6-------| x2
d----------------------6-6--4-4-----------------|
a-----------------------------------------------|
e-----------------------------------------------|


pre chorus

guitar1 & 2


e------------------------------------------------|
b------------------------------------------------|
g------------------------------------------------|
d--2-------------4-----------2------------4------|
a--2-------------4-----------2------------4------|
e--0-------------2-----------0------------2------|


Chorus


Guitar 1 & 2


e-----------------------------------------------------------------------|
b-----------------------------------------------------------------------|
g-4-4-4-4------------------------------4-4-4-4--------------------------|
d-4-4-4-4--4-4-4-4--6-6-6-6--2-2-2-2---4-4-4-4--4-4-4-4--2-2-2-2-2------|  x2
a-2-2-2-2--4-4-4-4--6-6-6-6--2-2-2-2---2-2-2-2--4-4-4-4--2-2-2-2-2------|
e----------2-2-2-2--4-4-4-4--0-0-0-0------------2-2-2-2--0-0-0-0-0------|


post chorus


guitar 1


e--4----------6--------------7---------------9-----|
b--7b9-9-7-9--9b11--11-9-11--10b12-12-11-12--12b14-------|
g----------------------------------------------|
d----------------------------------------------|
a----------------------------------------------|
e----------------------------------------------|

guitar 2

e------------------------------------------|
b------------------------------------------|
g------------------------------------------|
d---6-6-6-6--4-4-4-4--6-6-6-6--2-2-2-2-----|
a---6-6-6-6--4-4-4-4--6-6-6-6--2-2-2-2-----|
e---4-4-4-4--2-2-2-2--4-4-4-4--0-0-0-0-----|



verse 2

guitar 1

e-----------------------------------------------|
b-----------------------------------------------|
g--4-4--3-3--4-4--6-6------------4-4--6-6-------| x1
d----------------------6-6--4-4-----------------|
a-----------------------------------------------|
e-----------------------------------------------|

pre chorus


guitar1 & 2


e------------------------------------------------|
b------------------------------------------------|
g------------------------------------------------|
d--2-------------4-----------2------------4------|
a--2-------------4-----------2------------4------|
e--0-------------2-----------0------------2------|


chorus

guitar 1 & 2

e-----------------------------------------------------------------------|
b-----------------------------------------------------------------------|
g-4-4-4-4------------------------------4-4-4-4--------------------------|
d-4-4-4-4--4-4-4-4--6-6-6-6--2-2-2-2---4-4-4-4--4-4-4-4--2-2-2-2-2------|  x2
a-2-2-2-2--4-4-4-4--6-6-6-6--2-2-2-2---2-2-2-2--4-4-4-4--2-2-2-2-2------|
e----------2-2-2-2--4-4-4-4--0-0-0-0------------2-2-2-2--0-0-0-0-0------|

bridge

guitar 1

e--------------------------------------------------------------|
b--------------------------------------------------------------|
g------------------11-9-8-6------------------------------------|
d--------------------------------------------------------------|
a--------------------------------------------------------------|
e--------------------------------------------------------------|

guitar 2

e------------------------------------------------------------|
b------------------------------------------------------------|
g-----6----------------------6-------------------------------|
d-----6----------4-----------6------------2---(16x)----------|
a-----4----------4-----------4------------2------------------|
e----------------2------------------------0------------------|


guitar 1


e------------------------------------------------------------------------------|
b------------------------------------------------------------------------------|
g-8-8-8--4h6--13-13-13--8h9--20-20-20--16h18--16h21-16h21-16-20s21-20-21s20-16-|
d------------------------------------------------------------------------------|
a------------------------------------------------------------------------------|
e------------------------------------------------------------------------------|


guitar 2

e--------------------------------------------------------------------|
b--------------------------------------------------------------------|
g-4-4-4-4------------------------------4-4-4-4-----------------------|
d-4-4-4-4--4-4-4-4--6-6-6-6--2-2-2-2---4-4-4-4--4-4-4-4--2-2-2-2-2---|
a-2-2-2-2--4-4-4-4--6-6-6-6--2-2-2-2---2-2-2-2--4-4-4-4--2-2-2-2-2---|
e----------2-2-2-2--4-4-4-4--0-0-0-0------------2-2-2-2--0-0-0-0-0---|

guitar  2


e----------------------------------------------|
b----------------------------------------------|
g-----444444444444444444444444-----------------|
d-----xxxxxxxxxxxxxxxxxxxxxxxx-----------------|
a-----222222222222222222222222-----------------|
e----------------------------------------------|


guitar 1


e----------------------------------------------------|
b----------------------------------------------------|
g----------------------------------------------------|
d----------------------------------------------------|
a------------------------------------------1--2--5---|
e----------------------------------0--1--2-----------|

chorus

guitar 1

e-----------------------------------------------------|
b-----------------------------------------------------|
g--20-20-20--16-18--20-20-20-17-16--20-20-20-16-18----|
d-----------------------------------------------------|  x2
a-----------------------------------------------------|
e-----------------------------------------------------|


guitar 2

e-----------------------------------------------------------------------|
b-----------------------------------------------------------------------|
g-4-4-4-4------------------------------4-4-4-4--------------------------|
d-4-4-4-4--4-4-4-4--6-6-6-6--2-2-2-2---4-4-4-4--4-4-4-4--2-2-2-2-2------|  x2
a-2-2-2-2--4-4-4-4--6-6-6-6--2-2-2-2---2-2-2-2--4-4-4-4--2-2-2-2-2------|
e----------2-2-2-2--4-4-4-4--0-0-0-0------------2-2-2-2--0-0-0-0-0------|


(on the second time keep repeating the last power chord)


ending


Guitar 1


e-----------------------------------------------------------------------|
b-----------------------------------------------------------------------|
g---11-9-8-9-9h11--11-9-8-9-9h8--11-9-8-9-9h11--11-9-8h98h9-8-9h8-------|
d-----------------------------------------------------------------------|  x2
a-----------------------------------------------------------------------|
e-----------------------------------------------------------------------|


Guitar 2

e-------------------------------------------------------------------|
b-------------------------------------------------------------------|
g-4-4-4----------------------------------4-4-4----------------------|   x2
d-4-4-4---4-4-4---6-6-6---2-2-2----------4-4-4--4-4-4--2-2-2-2-2----|
a-2-2-2---4-4-4---6-6-6---2-2-2----------2-4-4--4-4-4--2-2-2-2-2----|
e---------2-2-2---4-4-4---0-0-0-----------------2-2-2--0-0-0-0-0----|

Well there you have it
hope u like it
GOD BLESS YOU ALL!!!!!!!!!!

Tabbed by Marcos a.k.a guitar FREAKKK


=)

            
            
Suggest correction
Creating personal tab
Creating personal tab
You can edit any tab online and save it as your Personal.

You can edit, replace or remove any tab part or add personal notes – all changes will be seen only by you.

Personal tabs can be accessed anytime from any device, even offline.
Learn more »
comments
print report bad tab
8 comments total. Showing first comments.
+1 reply
greenshoes 42 May 19, 2007 07:49 AM

The solos are simplified, but they are accurate. Good job.

+1 reply
BobaloC 143 Mar 02, 2008 07:23 AM

I think that this is a good tab, not sure about one or two notes but I suppose you know better! Great song and you've done a good job on it!

+1 reply
BobaloC 143 Mar 03, 2008 09:26 AM

I previously voted tis tab 4* but because its 99% correct, I'm in a good mood and I like the song I have changed my rating to 5*

guest
You may want to rate the tab now too:
select rating
Wanna post a correction for this tab? Suggest correction