Oops, an error
Loading. Please wait.

Innocent bass

548 views 3 this week
no commentswrite comment
1 2 3 4 5
2 more votes to show rating
add to favorites
×
Save as Personal and add changes to this tab that will be seen only by you. Learn more ›
×
You can save this tab as Personal to edit and correct it or add notes. All changes will be seen only by you. Learn more »
launch autoscroll
font size
0
reset
guitar tuner
edit
Autoscroll
slow
fast
+/-
esc
set tempo
stop
Author
Difficulty
This is my 1st tab ever so here it go's.

Come in after guitar and drum intro.
Intro
G:------------------------------|
D:------------------------------|
A:-----------------000000-------|
E:-0000000011111111------333333-|

Rest during first verse.

Pre-Chorus
G:------------------------------------------------|
D:------------------------------------------------|
A:-0----3-0---0----3-0---0----3-3-5-5-5-5-5-5-5-5-|
E:----3-----1----3-----1---3----------------------|
                                 (quarters notes)
Chorus
G:----------------------------------------|
D:----------------------------------------|
A:-------0-------0------0-----------------|
E:-0-1-3---0-1-3---0-1-3--3-3-3-3-3-3-3-3-|
                         (quarter notes.)
Post-Chorus
G:-------------------|
D:-------------------|
A:--------0-----00---|
E:-0-1--3---0-1---33-|

Verse 2
G:------------------------------------|
D:------------------------------------|
A:-------0-----00-----------0-----0-3-|
E:-0-1-3---0-1----33--0-1-3---0-1-----|

Pre-Chorus
G:------------------------------------------------|
D:------------------------------------------------|
A:-0----3-0---0----3-0---0----3-3-5-5-5-5-5-5-5-5-|
E:----3-----1----3-----1---3----------------------|
                                 (quarters notes)

Chorus
G:----------------------------------------|
D:----------------------------------------|
A:-------0-------0------0-----------------|
E:-0-1-3---0-1-3---0-1-3--3-3-3-3-3-3-3-3-|
                         (quarter notes.)

Bridge (Buried Underneath This Avalanch...)
G:---------------------------------------------|
D:---------------------------------------------|
A:-------0--0---------0------------------------|
E:-0-1-3------3-0-1-3---3-0-1--3-3-3-3-3-3-3-3-|

Wa oh, wa oh oh (idk what this part is called)
G:---------------------------------------------------------|
D:---------------------------------------------------------|
A:-----------------0---------------------------------------|
E:-0-1--0-1-3--0-1---3-1-0--0-1--0-1-3-0-1-3-3-3-3-3-3-3-3-|

Chorus
G:----------------------------------------|
D:----------------------------------------|
A:-------0-------0------0-----------------|
E:-0-1-3---0-1-3---0-1-3--3-3-3-3-3-3-3-3-|
                         (quarter notes.)

Chorus
G:----------------------------------------|
D:----------------------------------------|
A:-------0-------0------0-----------------|
E:-0-1-3---0-1-3---0-1-3--3-3-3-3-3-3-3-3-|
                         (quarter notes.)

Wa oh, wa oh oh
G:--------------------------------------------------|
D:--------------------------------------------------|
A:-----------------0------------------------0-------|
E:-0-1--0-1-3--0-1---3-1-0--0-1--0-1-3--0-1---3-1-0-|

Wa oh, wa oh oh
G:--------------------------------------------------|
D:--------------------------------------------------|
A:-----------------0------------------------0-------|
E:-0-1--0-1-3--0-1---3-1-0--0-1--0-1-3--0-1---3-1-0-|

I tabed this because no one else had it online.
Tell me what you think about it, I hope it is helpful.
Btw, I tabed it by hand because I couldnt get the template to load.

            
            
Suggest correction
Creating personal tab
Creating personal tab
You can edit any tab online and save it as your Personal.

You can edit, replace or remove any tab part or add personal notes – all changes will be seen only by you.

Personal tabs can be accessed anytime from any device, even offline.
Learn more »
Give kudos to tab author, rate the tab!
1 2 3 4 5
comments
print report bad tab
guest
You may want to rate the tab now too:
select rating
Wanna post a correction for this tab? Suggest correction