Oops, an error
Loading. Please wait.

Moongirl tab

version 2
version 2

Whole song

462 views 1 this week
no commentswrite comment
1 2 3 4 5
2 more votes to show rating
add to favorites
×
Save as Personal and add changes to this tab that will be seen only by you. Learn more ›
×
You can save this tab as Personal to edit and correct it or add notes. All changes will be seen only by you. Learn more »
launch autoscroll
font size
0
reset
how to read this tab
guitar tuner
edit
Autoscroll
slow
fast
+/-
esc
set tempo
stop
Author
Difficulty
-------------------------------------------------------------------------------
                             MOONGIRL - Stellastarr*
-------------------------------------------------------------------------------
Tabbed by: Addis Ababa
Email: senatornorm_coleman@yahoo.com

Tuning: Standard

(0:24)
e|----------------------------------------------------|
B|----------------------------------------------------|
G|----------------------------------------------------|
D|-------0---7--------5------------4---------4--------| x2
A|----5-5-------5---5---5---5----4---4---4------4-----|
E|-7-------7------7-------7---5--------5---5------5-0-|

(0:38)
e|-------------------------------------------------------|
B|-------------------------------------------------------|
G|-------------------------------------------------------|
D|-------0------------0----------------------------------|
A|----2-----2-----4------4----------5--7-4-5----5--7-5---|
E|-3----------3/5---5------5-0-5/7------------7--------7-|

e|---------------------------------------------|
B|---------------------------------------------|
G|---------------------------------------------|
D|-------0------------0------------------------|
A|----2-----2-----4-----4----------------------|
E|-3----------3/5---5-----5-0-7----let-ring----|

(0:51)
e|----------------------------------------------------|
B|----------------------------------------------------|
G|----------------------------------------------------|
D|-------0---7--------5------------4---------4--------| x2
A|----5-5-------5---5---5---5----4---4---4------4-----|
E|-7-------7------7-------7---5--------5---5------5-0-|

(1:04)
e|-------------------------------------------------------|
B|-------------------------------------------------------|
G|-------------------------------------------------------|
D|-------0------------0----------------------------------|
A|----2-----2-----4------4----------5--7-4-5----5--7-5---|
E|-3----------3/5---5------5-0-5/7------------7--------7-|

e|------------------------------------------------------------|
B|------------------------------------------------------------|
G|------------------------------------------------------------|
D|-------0------------0---------------------------------------|
A|----2-----2-----4-----4---------------------5-5-5-5-5-5-5-5-|
E|-3----------3/5---5-----5-0-7-7-7-7-7-7-7-7-7-7-7-7-7-7-7-7-|


Here the chords start. I've put a G variant instead of the standard G, only
because it sounded better to me. If you want a more simple way of playing these
chords just use the power chord counterparts. To be honest these chords didn't
100% correct to me, but they work.

                     G   (355433)     Dsus4  (x00233)
                     A   (x02220)     Dsus2  (x00230)
                     Bm  (224432)     Em7    (x22030)
                     D   (x00232)            

(1:17)

G  |  A  |  Bm   |   D | A  


(1:24)

G  |  A  |  Bm


(1:30)

G  |  A  | D |Dsus4|D|Dsus2| Em7 | A 


(1:37)
G  |  A  |  Bm


(1:44)
e|----------------------------------------------------|
B|----------------------------------------------------|
G|----------------------------------------------------|
D|-------0---7--------5------------4---------4--------| x2
A|----5-5-------5---5---5---5----4---4---4------4-----|
E|-7-------7------7-------7---5--------5---5------5-0-|

(1:57)
e|-------------------------------------------------------|
B|-------------------------------------------------------|
G|-------------------------------------------------------|
D|-------0------------0----------------------------------|
A|----2-----2-----4------4----------5--7-4-5----5--7-5---|
E|-3----------3/5---5------5-0-5/7------------7--------7-|

e|------------------------------------------------------------|
B|------------------------------------------------------------|
G|------------------------------------------------------------|
D|-------0------------0---------------------------------------|
A|----2-----2-----4-----4---------------------5-5-5-5-5-5-5-5-|
E|-3----------3/5---5-----5-0-7-7-7-7-7-7-7-7-7-7-7-7-7-7-7-7-|


(2:10)

G  |  A  |  Bm   |   D | A  


(2:17)

G  |  A  |  Bm


(2:24)

G  |  A  | D |Dsus4|D|Dsus2| Em7 | A 


(2:30)
G  |  A  |  Bm


Here the song slows down a bit so if you want use this G variant : (x20003)

(2:37)
Bm    | A |  G 

I even added the little riff that comes in after the first half of the song.
There's actually more to it as the song goes on, but I like to do a little 
improv to fill in. When you listen to this part you can bearly hear the open B 
that is played before the B an octave higher on the 12th fret. I usually pluck 
the open B softly to avoid making it sound too noisy.

e|--------------------------------------------|
B|-0-12-0-12-0-12-0-12-0-10-------------------|
G|--------------------------12-11----11b12b11-|
D|--------------------------------------------|
A|--------------------------------------------|
E|--------------------------------------------|

Also, there is some of the distorted guitar in the background throughout
the song. It's a little hard to make out, but I may add it later when I have 
the time.

| /  slide up
| \  slide down
| h  hammer-on
| p  pull-off
| ~  vibrato
| +  harmonic
| x  Mute note

Outside, there's a spaceship 
Blocks the sun, forms a shadow hovering over me 

Yesterday I had missed it 
But today, there's a girl who shows me everything 

I said: ohhh, she was the moment
I said: ohhh, she was the moment
I said: ohhh, she was the moment
I said: yeah, moongirl

Let's surf on the horizon 
To the moon were the world will look much clearer to me 

One day I'll be finished 
But today, there's a girl who shows me everything 

I said: ohhh, she was the moment
I said: ohhh, she was the moment
I said: ohhh, she was the moment
I said: yeah, moongirl

===============================================================================

            
            
Suggest correction
Creating personal tab
Creating personal tab
You can edit any tab online and save it as your Personal.

You can edit, replace or remove any tab part or add personal notes – all changes will be seen only by you.

Personal tabs can be accessed anytime from any device, even offline.
Learn more »
Give kudos to tab author, rate the tab!
1 2 3 4 5
comments
print report bad tab
guest
You may want to rate the tab now too:
select rating
Wanna post a correction for this tab? Suggest correction