Oops, an error
Loading. Please wait.

It Might Be You intro tab

version 3
version 3

Whole song

Interactive

16,564 views 3 this week
no commentswrite comment
1 2 3 4 5
x 5
add to favorites
×
Save as Personal and add changes to this tab that will be seen only by you. Learn more ›
×
You can save this tab as Personal to edit and correct it or add notes. All changes will be seen only by you. Learn more »
launch autoscroll
font size
0
reset
how to read this tab
guitar tuner
edit
Autoscroll
slow
fast
+/-
esc
set tempo
stop
Title: It Might Be You (Intro)
Artist: Stephen Bishop
Tabbed by: Jonah A. Cruz

This tab is so easy and I am recommending this for beginners (use this to practice
your plucking) Prefer to use a pick for tremendous sound.
Any suggestions or questions, feel free to email me. 

                 



|---3-----5-5h7---3-------|
|---3--3------------------|
|---0---------------------|
|-------------------------|
|-------------------------|
|-------------------------|

|---3-----5-5h7---3-------|
|---3--3------------------|
|---4---------------------|
|-------------------------|
|-------------------------|
|-------------------------|


|---3-----5-5h7---3-------|
|---3--3------------------|
|---5---------------------|
|-------------------------|
|-------------------------|
|-------------------------|

|---3--3—--0h4-0---------------|
|---3--3--------------0h4----0-|
|------------------------------|
|------------------------------|
|------------------------------|
|------------------------------|

Please repeat.


Have a nice time playing this...
This really sounds great and accurate.

            
            
Suggest correction
Creating personal tab
Creating personal tab
You can edit any tab online and save it as your Personal.

You can edit, replace or remove any tab part or add personal notes – all changes will be seen only by you.

Personal tabs can be accessed anytime from any device, even offline.
Learn more »
comments
print report bad tab
guest
Wanna post a correction for this tab? Suggest correction