Oops, an error
Loading. Please wait.

The Ground Beneath Your Feet tab

361 views 1 this week
no commentswrite comment
1 2 3 4 5
3 more votes to show rating
add to favorites
×
Save as Personal and add changes to this tab that will be seen only by you. Learn more ›
×
You can save this tab as Personal to edit and correct it or add notes. All changes will be seen only by you. Learn more »
launch autoscroll
font size
0
reset
how to read this tab
guitar tuner
edit
Autoscroll
slow
fast
+/-
esc
set tempo
stop
Author
Difficulty
The Ground Beneath Your Feet
Stephen Fretwell

No Capo


     Em                                                                               Em
E|----0---0---0---0------0-0----0---0---0-------0---0----0--------0---0----0-----------0---0--|
D|----0---0---0---0------0-0----0---0---0-------0---0----0--------0---0----0-----------0---0--|
G|----0---0---0---0------0-0----0---0---0-------0---0----0--------0---0----0-----------0---0--|
D|----2---2---2---2----2------0-----------0-----0---0----0--0-----0---0----0-----------2---2--|
A|----2---2---2---2---------------2---3-----3-2--------3------3-2--------0-------------2---2--|
E|--0-0-0-0-0-0-0-0-------------------------------3-----------------3---------3-2--0---0-0-0--|

                    Now that since I've found your face in the most pe---cu---liar place
                                    I    don't feel I've anything to prove to any--one 
else   but you


     Em                   G                                        C
E|----0---0---0---0--------3--------------3----3-------------------0---0---------0--0---------|
D|----0---0---0---0--------0-------------0h1--1p0------------------1---1----1----1--1---------|
G|----0---0---0---0--------0--------------0----0-------------------0---0----0----0--0---------|
D|----2---2---2---2--------0--------------0----0-------------------2--2h3--3p2---2--2---------|
A|----2---2---2---2--------2--------------2----2-----------0----2--3---3----3----3--3---------|
E|--0-0-0-0-0-0-0-0----0-2-3--------------3----3------3---------------------------------------|

                      And I think of her               and she thinks of him

     C               Am               Am7    C
E|---0----------0-0--0---0-------------0-----0------------------------------------------------|
D|---1----------1-1--1---1-------------1-----1------------------------------------------------|
G|---0----------0-0--2---2-------------0-----0------------------------------------------------|
D|---2----------2-0--2---2-------------2-----2------------------------------------------------|
A|---3----------3-2--0---0-------------0-----3------------------------------------------------|
E|--------------------------------------------------------------------------------------------|

and there's no escaping this mess that we're in

      C                     Am        Am                                      C
E|----0----------------------0-------0----0h333p00--0-------------------------0---------------|
D|----1----------------------1-------1----1------1--1-------------------------1---------------|
G|----0----------------------2-------2----2------2--2-------------------------0---------------|
D|----2----------------------2-------2----2------2--2-------------------------2---------------|
A|----3----------------------0-------0----0------0--0-------------------------3---------------|
E|--------------------------------------------------------------------------------------------|

but its like she's holding court                   down each street that we walk


      C                         G        Em            C         Am         Em
E|----0---------0----0----------3--------0-------------0----------0----------0----------------|
D|----1---------1----1----------0--------0-------------1----------1----------0----------------|
G|----0---------0----0----------0--------0-------------0----------2----------0----------------|
D|----2---------2----0----------0--------2-------------2----------2----------2----------------|
A|----3---------3----2----------2--------2-------------3----------0----------2----------------|
E|------------------------------3----2---0-----------------------------------0----------------|

and as she's drawing all that heat   I feel like the ground   beneath     her feet



h = hammer on
p = pull off


Now that since I've found your face
in the most peculiar place
I don't feel I've anything to prove
to anyone else but you

Em              G
And I think of her
                   C
and she thinks of him
                   Am
and there's no escaping
                    C
this mess that we're in
                            Am
but its like she's holding court
                           C
down each street that we walk
                               G
and as she's drawing all that heat
   Em             C      Am          Em
I feel like the ground beneath her feet

--------------------------------------

Glance past a skyline of factories
think of that life that was over to you
Time, time well there's a funny thing
written in black on the back of your hand

I still think of her
do you think of him
and those pills and potions
work the same time again
and you're counting all the numbers
in your waterproof purse
and it's not just a chance I have to stay and crawl along and past
the ground beneath your feet


---------------------------------------

Do you think of her
cos I think of him
and there's no escaping
this mess that we're in

and its like you're holding court
down each street that we walk
and as you're drawing all that heat
I can't surmise or say
I wonder what price it is I'll pay
to sweep and move the sand
from the ground beneath your feet

Now that I've found your face
in the most peculiar place


This is my first tab writing. I hope it will work for you. Thanks ;)
Alper M.S.

            
            
Suggest correction
Creating personal tab
Creating personal tab
You can edit any tab online and save it as your Personal.

You can edit, replace or remove any tab part or add personal notes – all changes will be seen only by you.

Personal tabs can be accessed anytime from any device, even offline.
Learn more »
Give kudos to tab author, rate the tab!
1 2 3 4 5
comments
print report bad tab
guest
You may want to rate the tab now too:
select rating
Wanna post a correction for this tab? Suggest correction