Oops, an error
Loading. Please wait.

Bright Red Star tab

version 1
version 1

Whole song

Interactive

14,265 views 27 this week
2 commentsread comments
1 2 3 4 5
x 13
add to favorites
×
Save as Personal and add changes to this tab that will be seen only by you. Learn more ›
×
You can save this tab as Personal to edit and correct it or add notes. All changes will be seen only by you. Learn more »
launch autoscroll
font size
0
reset
how to read this tab
guitar tuner
edit
Autoscroll
slow
fast
+/-
esc
set tempo
stop
Author
Difficulty
Stereophonics - Bright Red Star

Tabbed by Josh Rankin


Intro

e|-----------------------------------------------------|
B|-----3--3--3--3--3--3--3--3--3--3--3--3--3--3--3--3--|
G|-----------------------------------------------------|
D|---5--5--5--5--5--5--5--5--4--4--4--4--4--4--4--4----|
A|-----------------------------------------------------|
E|-----------------------------------------------------|

Verse

e|-----------------------------------------------------|
B|-----3--3--3--3--3--3--3--3--3--3--3--3--3--3--3--3--|
G|-----------------------------------------------------|
D|---5--5--5--5--5--5--5--5--4--4--4--4--4--4--4--4----|
A|-----------------------------------------------------|
E|-----------------------------------------------------|

e|-----------------------------------------------------|
B|-----3--3--3--3--3--3--3--3--3--3--3--3--3--3--3--3--|
G|-----------------------------------------------------|
D|---5--5--5--5--5--5--5--5--4--4--4--4--4--4--4--4----|
A|-----------------------------------------------------|
E|-----------------------------------------------------|

e|-----------------------------------------------------|
B|-----3--3--3--3--3--3--3-----------------------------|
G|--------------------------4--4--4--4--4--4--4--4--4--|
D|---3--3--3--3--3--3--3--3--2--2--2--2--2--2--2--2----|
A|-----------------------------------------------------|
E|-----------------------------------------------------|

Chorus

e|-----------------------------------------------------|
B|-----3--3--3--3--3--3--3--3--3--3--3-----------------|
G|--------------------------------------4--4--4--4-----|
D|---5--5--5--5--4--4--4--4--3--3--3--3--2--2--2--2----|
A|-----------------------------------------------------|
E|-----------------------------------------------------|

Intro x2
Verse
Chorus x2
Verse
Chorus x2
Verse
Chorus x2
Verse
Chorus x4
Verse

I'm pretty sure this is right! please rate!

            
            
Suggest correction
Creating personal tab
Creating personal tab
You can edit any tab online and save it as your Personal.

You can edit, replace or remove any tab part or add personal notes – all changes will be seen only by you.

Personal tabs can be accessed anytime from any device, even offline.
Learn more »
comments
print report bad tab
2 comments total.
0 reply
oasislad06 139 Oct 17, 2007 07:49 AM

can u do the chords please mate

0 reply
angerisagift03 130 Mar 09, 2008 10:15 AM

its

e|-----------------------------------------------------|
B|-----3--3--3--3--3--3--3-----------------------------|
G|--------------------------5--5--5--5--5--5--5--5--5--|
D|---3--3--3--3--3--3--3--3--2--2--2--2--2--2--2--2----|
A|-----------------------------------------------------|
E|-----------------------------------------------------|

the end notes go to C, not B.
good work though. very good song.

guest
You may want to rate the tab now too:
select rating
Wanna post a correction for this tab? Suggest correction