Oops, an error
Loading. Please wait.

Dakota tab

version 1
version 1

Whole song

Video

81,919 views 108 this week
3 commentsread comments
1 2 3 4 5
x 8
add to favorites
×
Save as Personal and add changes to this tab that will be seen only by you. Learn more ›
×
You can save this tab as Personal to edit and correct it or add notes. All changes will be seen only by you. Learn more »
launch autoscroll
font size
0
reset
how to read this tab
guitar tuner
backing track
0:00
0:00
edit
Autoscroll
slow
fast
+/-
esc
set tempo
stop
Author
This is the amazing new song by Stereophonics on their amazing new album(it rocks!!)...EnJoy!;)
any probs or questions you know where to e-mail me!
----------------------------------------------------------------------------
STEREOPHONICS-Dakota
ALBUM:Language.Sex.Violence.Other
Tabbed by Tom Woo(strato32) Help from:Dewi Roberts

Standard Tuning


[Intro]

 (Just plays one note.The effect used plays another 15 notes.)
e|-----------------------------------------------------------------|
B|-----------------------------------------------------------------|
G|-----------------------------------------------------------------|
D|-9---------------6---------------2---------------9---------------|
A|-----------------------------------------------------------------|
E|-----------------------------------------------------------------|


[This is then played at] 

 (0:12)
e|----12--------11-------7---------7---------7------------------|
B|-12----12--12------5--------5---------5-----------------------|
G|--------------------------------------------------------------|
D|--------------------------------------------------------------|
A|--------------------------------------------------------------|
E|--------------------------------------------------------------|
(Th first part of verse 1 is also played behind this)


[Verse 1]

e|-7-4-7-4-7-4-7-4-7-4-7-4-7-4-7-4-9--9--9--9--9--9--9--9--9-----------------7-4-7-4-7-4-7-4-7-4-7-4-7-4-7-4-|
B|-----------------------------------------------------------------------------------------------------------|
G|-----------------------------------------------------------------------------------------------------------|
D|-----------------------------------------------------------------------------------------------------------|
A|-----------------------------------------------------------------------------------------------------------|
E|-----------------------------------------------------------------------------------------------------------|

e|-7-4-7-4-7-4-7-4-7-4-7-4-7-4-7-4-9--9--9--9--9--9--9--9--9-0-0-0-0-0-0-0-0-0-0-0-0-0-0-0-0-0-0-0-0-0-0-0-0-|
B|----------------------------------------------------------------------------------------------------------x|
G|----------------------------------------------------------------------------------------------------------x|
D|----------------------------------------------------------------------------------------------------------x|
A|----------------------------------------------------------------------------------------------------------x|
E|-----------------------------------------------------------------------------------------------------------|


[Chorus]

e|-----------------------------------------------------------------|
B|-----------------------------------------------------------------|
G|--6-6-6-6-6-6-6-6--------1-1-1-1-1-1-1-1-------------------------|
D|--7-7-7-7-7-7-7-7--------2-2-2-2-2-2-2-2-------------------------|
A|--7-7-7-7-7-7-7-7--------2-2-2-2-2-2-2-2-------------------------|
E|--5-5-5-5-5-5-5-5--------0-0-0-0-0-0-0-0-------------------------|
                   (x4)                  (x4)


 This is played over the chords

e|-12-11------12-11-----4-(5)-(4)-(5)-(4)-(5)-(4)-(5)-(4)-|
B|-------12-9-------12-9----------------------------------|
G|--------------------------------------------------------|
D|--------------------------------------------------------|
A|--------------------------------------------------------|
E|--------------------------------------------------------|

e|-(5)-(4)-5-4-(5)-(4)-(5)-(4)-(5)-(4)-(5)-(4)-(5)-(4)-(5)|
B|--------------------------------------------------------|
G|--------------------------------------------------------|
D|--------------------------------------------------------|
A|--------------------------------------------------------|
E|--------------------------------------------------------|


 (Bend the 4\'s to sound as 5\'s and then bend back to sound 4).Play the chorus 2 times.
 The second time, play this;
e|-----------------------------------------------------------------|
B|-----------------------------------------------------------------|
G|--6-6-6-6-6-6-6-6--------1-1-1-1-1-1-1-1-------------------------|
D|--7-7-7-7-7-7-7-7--------2-2-2-2-2-2-2-2-------------------------|
A|--7-7-7-7-7-7-7-7--------2-2-2-2-2-2-2-2-------------------------|
E|--5-5-5-5-5-5-5-5--------0-0-0-0-0-0-0-0-------------------------|
                  (x4)                   (x4)


 This is played over the chords
e|-12-11------12-11-----4-(5)-(4)-(5)-(4)-(5)-(4)-(5)|
B|-------12-9-------12-9-----------------------------|
G|---------------------------------------------------|
D|---------------------------------------------------|
A|---------------------------------------------------|
E|---------------------------------------------------|

e|-(4)-(5)-(4)-5-4-(5)-(4)-(5)-(4)-(5)-(4)-(5)-(4)-------------|
B|-------------------------------------------------------------|
G|----------------------------------------------------slide----|
D|----------------------------------------------------plec up--|
A|-------------------------------------------------------------|
E|-------------------------------------------------------------|


[Verse 2]

e|-7-4-7-4-7-4-7-4-7-4-7-4-7-4-7-4-9--9--9--9--9--9--9--9--9-----------------7-4-7-4-7-4-7-4-7-4-7-4-7-4-7-4-|
B|-----------------------------------------------------------------------------------------------------------|
G|-----------------------------------------------------------------------------------------------------------|
D|-----------------------------------------------------------------------------------------------------------|
A|-----------------------------------------------------------------------------------------------------------|
E|-----------------------------------------------------------------------------------------------------------|

e|-7-4-7-4-7-4-7-4-7-4-7-4-7-4-7-4-9--9--9--9--9--9--9--9--9-0-0-0-0-0-0-0-0-0-0-0-0-0-0-0-0-0-0-0-0-0-0-0-0-|
B|----------------------------------------------------------------------------------------------------------x|
G|----------------------------------------------------------------------------------------------------------x|
D|----------------------------------------------------------------------------------------------------------x|
A|----------------------------------------------------------------------------------------------------------x|
E|-----------------------------------------------------------------------------------------------------------|


 Over this repeat this section two times:
e|----12--------11-------7---------7---------7------------------|
B|-12------12----------5--------5---------5---------------------|
G|--------------------------------------------------------------|
D|--------------------------------------------------------------|
A|--------------------------------------------------------------|
E|--------------------------------------------------------------|


[Chorus 2]

e|-----------------------------------------------------------------|
B|-----------------------------------------------------------------|
G|--6-6-6-6-6-6-6-6--------1-1-1-1-1-1-1-1-------------------------|
D|--7-7-7-7-7-7-7-7--------2-2-2-2-2-2-2-2-------------------------|
A|--7-7-7-7-7-7-7-7--------2-2-2-2-2-2-2-2-------------------------|
E|--5-5-5-5-5-5-5-5--------0-0-0-0-0-0-0-0-------------------------|
                  (x4)                   (x4)


 This is played over the chords

e|-12-11------12-11-----4-(5)-(4)-(5)-(4)-(5)-(4)-(5)|
B|-------12-9-------12-9-----------------------------|
G|---------------------------------------------------|
D|---------------------------------------------------|
A|---------------------------------------------------|
E|---------------------------------------------------|

e|-(4)-(5)-(4)-5-4-(5)-(4)-(5)-(4)-(5)-(4)-(5)-(4)-(5)-(4)-(5)-|
B|-------------------------------------------------------------|
G|-------------------------------------------------------------|
D|-------------------------------------------------------------|
A|-------------------------------------------------------------|
E|-------------------------------------------------------------|

e|-----------------------------------------------------------------|
B|-----------------------------------------------------------------|
G|--6-6-6-6-6-6-6-6--------1-1-1-1-1-1-1-1-------------------------|
D|--7-7-7-7-7-7-7-7--------2-2-2-2-2-2-2-2-------------------------|
A|--7-7-7-7-7-7-7-7--------2-2-2-2-2-2-2-2-------------------------|
E|--5-5-5-5-5-5-5-5--------0-0-0-0-0-0-0-0-------------------------|
                  (x4)                   (x4)


 This is played over the chords

e|-12-11------12-11-----4-(5)-(4)-(5)-(4)-(5)-(4)-(5)|
B|-------12-9-------12-9-----------------------------|
G|---------------------------------------------------|
D|---------------------------------------------------|
A|---------------------------------------------------|
E|---------------------------------------------------|

e|-(4)-(5)-(4)-5-4-(5)-(4)-(5)-(4)-(5)-(4)-(5)-(4)-------------|
B|-------------------------------------------------------------|
G|----------------------------------------------------slide----|
D|----------------------------------------------------plec up--|
A|-------------------------------------------------------------|
E|-------------------------------------------------------------|


[Bridge]

e|-------------------------------------------------------------------------------------------------|
B|-------------------------------------------------------------------------------------------------|
G|-1-1-1-1-1-1-1-1-1-1-1-1-------------------------------------------------------------------------|
D|-2-2-2-2-2-2-2-2-2-2-2-2-6-6-6-6-6-6-6-6-6-6-6-6-7-7-7-7-7-7-7-7-7-7-7-7-7-7-7-7-7-7-7-7-7-7-7-7-|
A|-2-2-2-2-2-2-2-2-2-2-2-2-6-6-6-6-6-6-6-6-6-6-6-6-7-7-7-7-7-7-7-7-7-7-7-7-7-7-7-7-7-7-7-7-7-7-7-7-|
E|-0-0-0-0-0-0-0-0-0-0-0-0-4-4-4-4-4-4-4-4-4-4-4-4-5-5-5-5-5-5-5-5-5-5-5-5-5-5-5-5-5-5-5-5-5-5-5-5-|

Also this is played over the A chord 4 times.

e|----------------------|
B|------------5----7----|
G|--4----6--------------|
D|----------------------|
A|----------------------|
E|----------------------|
This whole Bridge is played 2 times.


[Verse 3]

e|-7-4-7-4-7-4-7-4-7-4-7-4-7-4-7-4-9--9--9--9--9--9--9--9--9-----------------7-4-7-4-7-4-7-4-7-4-7-4-7-4-7-4-|
B|-----------------------------------------------------------------------------------------------------------|
G|-----------------------------------------------------------------------------------------------------------|
D|-----------------------------------------------------------------------------------------------------------|
A|-----------------------------------------------------------------------------------------------------------|
E|-----------------------------------------------------------------------------------------------------------|

e|-7-4-7-4-7-4-7-4-7-4-7-4-7-4-7-4-9--9--9--9--9--9--9--9--9-0-0-0-0-0-0-0-0-0-0-0-0-0-0-0-0-0-0-0-0-0-0-0-0-|
B|----------------------------------------------------------------------------------------------------------x|
G|----------------------------------------------------------------------------------------------------------x|
D|----------------------------------------------------------------------------------------------------------x|
A|-----------------------------------------------------------------------------------------------------------|
E|-----------------------------------------------------------------------------------------------------------|

Over the second time this is played again;

e|----12--------11-------7---------7---------7------------------|
B|-12----12--12----12--5--------5---------5---------------------|
G|--------------------------------------------------------------|
D|--------------------------------------------------------------|
A|--------------------------------------------------------------|
E|--------------------------------------------------------------|

Then there is another Chorus.


[Chorus 3]

e|-----------------------------------------------------------------|
B|-----------------------------------------------------------------|
G|--6-6-6-6-6-6-6-6--------1-1-1-1-1-1-1-1-------------------------|
D|--7-7-7-7-7-7-7-7--------2-2-2-2-2-2-2-2-------------------------|
A|--7-7-7-7-7-7-7-7--------2-2-2-2-2-2-2-2-------------------------|
E|--5-5-5-5-5-5-5-5--------0-0-0-0-0-0-0-0-------------------------|
                  (x4)                   (x4)


 This is played over the chords

e|-12-11------12-11-----4-(5)-(4)-(5)-(4)-(5)-(4)-(5)-(4)|
B|-------12-9-------12-9---------------------------------|
G|-------------------------------------------------------|
D|-------------------------------------------------------|
A|-------------------------------------------------------|
E|-------------------------------------------------------|

e|-(5)-(4)-5-4-(5)-(4)-(5)-(4)-(5)-(4)-(5)-(4)-(5)-(4)-(5)-|
B|---------------------------------------------------------|
G|---------------------------------------------------------|
D|---------------------------------------------------------|
A|---------------------------------------------------------|
E|---------------------------------------------------------|

e|-----------------------------------------------------------------|
B|-----------------------------------------------------------------|
G|--6-6-6-6-6-6-6-6--------1-1-1-1-1-1-1-1-------------------------|
D|--7-7-7-7-7-7-7-7--------2-2-2-2-2-2-2-2-------------------------|
A|--7-7-7-7-7-7-7-7--------2-2-2-2-2-2-2-2-------------------------|
E|--5-5-5-5-5-5-5-5--------0-0-0-0-0-0-0-0-------------------------|
                  (x4)                   (x4)


 This is played over the chords
e|-12-11------12-11-----4-(5)-(4)-(5)-(4)-(5)-(4)-(5)|
B|-------12-9-------12-9-----------------------------|
G|---------------------------------------------------|
D|---------------------------------------------------|
A|---------------------------------------------------|
E|---------------------------------------------------|

e|-(4)-(5)-(4)-5-4-(5)-(4)-(5)-(4)-(5)-(4)-(5)-(4)-------------|
B|-------------------------------------------------------------|
G|----------------------------------------------------slide----|
D|----------------------------------------------------plec up--|
A|-------------------------------------------------------------|
E|-------------------------------------------------------------|


[Bridge 2]

e|-------------------------------------------------------------------------------------------------|
B|-------------------------------------------------------------------------------------------------|
G|-1-1-1-1-1-1-1-1-1-1-1-1-------------------------------------------------------------------------|
D|-2-2-2-2-2-2-2-2-2-2-2-2-6-6-6-6-6-6-6-6-6-6-6-6-7-7-7-7-7-7-7-7-7-7-7-7-7-7-7-7-7-7-7-7-7-7-7-7-|
A|-2-2-2-2-2-2-2-2-2-2-2-2-6-6-6-6-6-6-6-6-6-6-6-6-7-7-7-7-7-7-7-7-7-7-7-7-7-7-7-7-7-7-7-7-7-7-7-7-|
E|-0-0-0-0-0-0-0-0-0-0-0-0-4-4-4-4-4-4-4-4-4-4-4-4-5-5-5-5-5-5-5-5-5-5-5-5-5-5-5-5-5-5-5-5-5-5-5-5-|

Also this is played over the A chord 4 times.

e|----------------------|
B|------------5----7----|
G|--4----6--------------|
D|----------------------|
A|----------------------|
E|----------------------|
This whole Bridge is played 4 times.


 [Outro]
 (Effect used at beginning)
e|----------------------------------------------------|
B|----------------------------------------------------|
G|----------------------------------------------------|
D|----------------------------------------------------|
A|--9---------------13-----------14-------------------|
E|----------------------------------------------------|

Play this two times then end on

e|--------------------|
B|--------------------|
G|--------------------|
D|----9---------------|
A|--------------------|
E|--------------------|

LYRICS (Order)


[Intro]

[Verse 1]

Thinking back, thinking of you, 
Summer time think it was June, 
Yeah I think it was June. 
Laying back head on the grass, 
Chewing gum, having some laughs, 
Yeah having some laughs 


[Chorus]

You made me feel like the one, 
You made me feel like the one, 
The one 
        X2


[Verse 2]

Drinking back drinking for two, 
Drinking with you, 
When drinking was new. 
Sleeping in the back of my car, 
We never went far, 
We wouldn\'t need to go far 


[Chorus 2]

You made me feel like the one, 
You made me feel like the one, 
The one 

You made me feel like the one, 
You made me feel like the one, 
The one 


[Bridge 1]

I don\'t know where we are going now, 
I don\'t know where we are going now 


[Verse 3]

Wake up, cold coffee and juice, 
Remembering you, what happened to you. 
I wonder if we\'ll meet again, 
And talk about life since then, 
And talk about why did it end 


[Chorus 3]

You made me feel like the one, 
You made me feel like the one, 
The one 

You made me feel like the one, 
You made me feel like the one, 
The one 


[Bridge 2]

I don\'t know where we are going now, 
I don\'t know where we are going now 

So take a look at me now,
So take a look at me now,
So take a look at me now,
So take a look at me now,
So take a look at me now,
So take a look at me now,
So take a look at me now,
So take a look at me now,
So take a look at me now,


[Outro]

So take a look at me now,
So take a look at me now,
So take a look at me now,
So take a look at me now,
So take a look at me now,
So take a look at me now,
So take a look at me now,
So take a look at me now,
So take a look at me now,



************************************

| x    Dead note
| (n)  Ghost note

************************************

            
            
Suggest correction
Creating personal tab
Creating personal tab
You can edit any tab online and save it as your Personal.

You can edit, replace or remove any tab part or add personal notes – all changes will be seen only by you.

Personal tabs can be accessed anytime from any device, even offline.
Learn more »
comments
print report bad tab
3 comments total.
0 reply
bettyswollox 140 Apr 01, 2005 07:00 PM

there is actually a capo on 4th fret coz i saw em play it live, but that may be the second guitar

0 reply
SamDking 341 Apr 09, 2005 08:00 PM

Really good overall, except this bit uses vibrato, like this:

|----------------------|
|------------5~~--7~~--|
|--4~~--6~~------------|
|----------------------|
|----------------------|
|----------------------|

0 reply
mistertomo123 50 Jun 14, 2006 10:03 AM

great except opening riff (after the 9--6--2 bit. here's my correction. sounds the same but way easier to play.
|----12--------11---12-------0---------0------------------------|
|-12----12--12----------12-------12--------12---------------------|
|--------------------------------------------------------------|
|--------------------------------------------------------------|
|--------------------------------------------------------------|
|--------------------------------------------------------------|

guest
You may want to rate the tab now too:
select rating
Wanna post a correction for this tab? Suggest correction