Oops, an error
Loading. Please wait.

Local Boy In The Photograph tab

version 2
version 2

Whole song

Interactive

1,277 views 1 this week
3 commentsread comments
1 2 3 4 5
1 last vote to show rating
add to favorites
×
Save as Personal and add changes to this tab that will be seen only by you. Learn more ›
×
You can save this tab as Personal to edit and correct it or add notes. All changes will be seen only by you. Learn more »
launch autoscroll
font size
0
reset
how to read this tab
guitar tuner
edit
Autoscroll
slow
fast
+/-
esc
set tempo
stop
Author
Difficulty
Both guitars start at the same time.
Kelly plays Gtr1.
Adam plays Gtr2.

Intro
Gtr 1. 
    G              Bm               C  Cmaj7  
e|--3-3-3-3-3-3-3-3-2-3-3-3-3-3-3-3---------------------------------|
B|--3-3-3-3-3-3-3-3-3-3-3-3-3-3-3-3-1-1-0-0-1-1-0-0-1-1-0-0-1-1-0-0-|
G|--0-0-0-0-0-0-0-0-4-4-4-4-4-4-4-4-0-0-0-0-0-0-0-0-0-0-0-0-0-0-0-0-|
D|--0-0-0-0-0-0-0-0-4-4-4-4-4-4-4-4-2-2-2-2-2-2-2-2-2-2-2-2-2-2-2-2-|
A|--2-2-2-2-2-2-2-2-----------------3-3-3-3-3-3-3-3-3-3-3-3-3-3-3-3-|
E|--3-3-3-3-3-3-3-3-------------------------------------------------|

Gtr2.

e|--10---------------10---------------8---------------8-------------|
B|-------7-----8---------7-----8---------7-----8---------7-----8----|
G|------------------------------------------------------------------|
D|------------------------------------------------------------------|
A|------------------------------------------------------------------|
E|------------------------------------------------------------------|

Gtr 1.
e|--------------------------|
B|-3--3---3-3-3-------------|
G|-2--2---2-2-2-------------|
D|-0--0---0-0-0-------------|
A|--------------3---2---0---|
E|--------------------------|

Gtr2.
e|--------------------------|
B|-3--3---3-3-3-------------|
G|-2--2---2-2-2-------------|
D|-0--0---0-0-0-------------|
A|--------------3---2---0---|
E|--------------------------|

Verse (play this part 7 times, after 4 the singing stops then starts again on the 6th time. 

Gtr 1 
    G              Bm               C   
e|--3-3-3-3-3-3-3-3-2-3-3-3-3-3-3-3---------------------------------|
B|--3-3-3-3-3-3-3-3-3-3-3-3-3-3-3-3-1-1-0-0-1-1-0-0-1-1-0-0-1-1-0-0-|
G|--0-0-0-0-0-0-0-0-4-4-4-4-4-4-4-4-0-0-0-0-0-0-0-0-0-0-0-0-0-0-0-0-|
D|--0-0-0-0-0-0-0-0-4-4-4-4-4-4-4-4-2-2-2-2-2-2-2-2-2-2-2-2-2-2-2-2-|
A|--2-2-2-2-2-2-2-2-----------------3-3-3-3-3-3-3-3-3-3-3-3-3-3-3-3-|
E|--3-3-3-3-3-3-3-3-------------------------------------------------|

Gtr 2                               
    G              Bm               C   
e|--3-3-3-3-3-3-3-3-2-3-3-3-3-3-3-3---------------------------------|
B|--3-3-3-3-3-3-3-3-3-3-3-3-3-3-3-3-1-1-0-0-1-1-0-0-1-1-0-0-1-1-0-0-|
G|--0-0-0-0-0-0-0-0-4-4-4-4-4-4-4-4-0-0-0-0-0-0-0-0-0-0-0-0-0-0-0-0-|
D|--0-0-0-0-0-0-0-0-4-4-4-4-4-4-4-4-2-2-2-2-2-2-2-2-2-2-2-2-2-2-2-2-|
A|--2-2-2-2-2-2-2-2-----------------3-3-3-3-3-3-3-3-3-3-3-3-3-3-3-3-|
E|--3-3-3-3-3-3-3-3-------------------------------------------------|

Bridge

Both Guitars
  
  and all the friends layed down the flowers sit on the banks and
e|-3---------------------------------0------------------------3---|
B|-3---------------------------------3--------------------------0-|
G|-0---------------------------------2----------------------------|
D|-0---------------------------------0----------------------------|
A|-2--------------------------------------------------------------|
E|-3--------------------------------------------------------------|

   drink for hours talk of the way they saw him last
e|---------------------------------------------------------------|
B|-----------1---------------------------------------------------|
G|-----------0---------------------------------------------------|
D|-----------2---------------------------------------------------|
A|-----------3----------------------------------3-2-3-2----------|
E|---------------------------------------------------------------|

   local boy in the photo-
e|--------------------------------------------------------------|
B|--------------------------------------------------------------|
G|--------------------------------------------------------------|
D|--------------------------------------------------------------|
A|-3-2-3-2-3-2-3-2-3-2-3----------------------------------------|
E|--------------------------------------------------------------|

Gtr 1
    graph                           Today 
    G              Bm               C   
e|--3-3-3-3-3-3-3-3-2-3-3-3-3-3-3-3---------------------------------|
B|--3-3-3-3-3-3-3-3-3-3-3-3-3-3-3-3-1-1-0-0-1-1-0-0-1-1-0-0-1-1-0-0-|
G|--0-0-0-0-0-0-0-0-4-4-4-4-4-4-4-4-0-0-0-0-0-0-0-0-0-0-0-0-0-0-0-0-|
D|--0-0-0-0-0-0-0-0-4-4-4-4-4-4-4-4-2-2-2-2-2-2-2-2-2-2-2-2-2-2-2-2-|
A|--2-2-2-2-2-2-2-2-----------------3-3-3-3-3-3-3-3-3-3-3-3-3-3-3-3-|
E|--3-3-3-3-3-3-3-3-------------------------------------------------|

Gtr 2.
    G              Bm               C   
e|--3-3-3-3-3-3-3-3-2-3-3-3-3-3-3-3---------------------------------|
B|--3-3-3-3-3-3-3-3-3-3-3-3-3-3-3-3-1-1-0-0-1-1-0-0-1-1-0-0-1-1-0-0-|
G|--0-0-0-0-0-0-0-0-4-4-4-4-4-4-4-4-0-0-0-0-0-0-0-0-0-0-0-0-0-0-0-0-|
D|--0-0-0-0-0-0-0-0-4-4-4-4-4-4-4-4-2-2-2-2-2-2-2-2-2-2-2-2-2-2-2-2-|
A|--2-2-2-2-2-2-2-2-----------------3-3-3-3-3-3-3-3-3-3-3-3-3-3-3-3-|
E|--3-3-3-3-3-3-3-3-------------------------------------------------|

Gtr 1 plays verse twice while Gtr 2 plays this twice:

e|--10---------------10---------------8---------------8-------------|
B|-------7-----8---------7-----8---------7-----8---------7-----8----|
G|------------------------------------------------------------------|
D|------------------------------------------------------------------|
A|------------------------------------------------------------------|
E|------------------------------------------------------------------|

Gtr 1. Keep Strumming C

Gtr2. play this 4 times
e|--------------------------|
B|-3--3---3-3-3-------------|
G|-2--2---2-2-2-------------|
D|-0--0---0-0-0-------------|
A|--------------3---2---0---|
E|--------------------------|

Then Play this 4 times
Gtr 1 
    G              Bm               C   
e|--3-3-3-3-3-3-3-3-2-3-3-3-3-3-3-3---------------------------------|
B|--3-3-3-3-3-3-3-3-3-3-3-3-3-3-3-3-1-1-0-0-1-1-0-0-1-1-0-0-1-1-0-0-|
G|--0-0-0-0-0-0-0-0-4-4-4-4-4-4-4-4-0-0-0-0-0-0-0-0-0-0-0-0-0-0-0-0-|
D|--0-0-0-0-0-0-0-0-4-4-4-4-4-4-4-4-2-2-2-2-2-2-2-2-2-2-2-2-2-2-2-2-|
A|--2-2-2-2-2-2-2-2-----------------3-3-3-3-3-3-3-3-3-3-3-3-3-3-3-3-|
E|--3-3-3-3-3-3-3-3-------------------------------------------------|

Gtr 2.
    G              Bm               C   
e|--3-3-3-3-3-3-3-3-2-3-3-3-3-3-3-3---------------------------------|
B|--3-3-3-3-3-3-3-3-3-3-3-3-3-3-3-3-1-1-0-0-1-1-0-0-1-1-0-0-1-1-0-0-|
G|--0-0-0-0-0-0-0-0-4-4-4-4-4-4-4-4-0-0-0-0-0-0-0-0-0-0-0-0-0-0-0-0-|
D|--0-0-0-0-0-0-0-0-4-4-4-4-4-4-4-4-2-2-2-2-2-2-2-2-2-2-2-2-2-2-2-2-|
A|--2-2-2-2-2-2-2-2-----------------3-3-3-3-3-3-3-3-3-3-3-3-3-3-3-3-|
E|--3-3-3-3-3-3-3-3-------------------------------------------------|

Both Guitars:
e|--------------------------|
B|-3--3---3-3-3-------------|
G|-2--2---2-2-2-------------|
D|-0--0---0-0-0-------------|
A|--------------3---2---0---|
E|--------------------------|

Both Guitars
  
  and all the friends layed down the flowers sit on the banks and
e|-3---------------------------------0----------------------------|
B|-3---------------------------------3----------------------------|
G|-0---------------------------------2----------------------------|
D|-0---------------------------------0----------------------------|
A|-2--------------------------------------------------------------|
E|-3--------------------------------------------------------------|

   drink for hours talk of the way they saw him last
e|-0-------------------------------------------------------------|
B|----3------1---------------------------------------------------|
G|-----------0---------------------------------------------------|
D|-----------2---------------------------------------------------|
A|-----------3----------------------------------3-2-3-2----------|
E|---------------------------------------------------------------|

   local boy in the photo-
e|--------------------------------------------------------------|
B|--------------------------------------------------------------|
G|--------------------------------------------------------------|
D|--------------------------------------------------------------|
A|-3-2-3-2-3-2-3-2-3-2-3----------------------------------------|
E|--------------------------------------------------------------|

Gtr 1
    graph                           Today 
    G              Bm               C   
e|--3-3-3-3-3-3-3-3-2-3-3-3-3-3-3-3---------------------------------|
B|--3-3-3-3-3-3-3-3-3-3-3-3-3-3-3-3-1-1-0-0-1-1-0-0-1-1-0-0-1-1-0-0-|
G|--0-0-0-0-0-0-0-0-4-4-4-4-4-4-4-4-0-0-0-0-0-0-0-0-0-0-0-0-0-0-0-0-|
D|--0-0-0-0-0-0-0-0-4-4-4-4-4-4-4-4-2-2-2-2-2-2-2-2-2-2-2-2-2-2-2-2-|
A|--2-2-2-2-2-2-2-2-----------------3-3-3-3-3-3-3-3-3-3-3-3-3-3-3-3-|
E|--3-3-3-3-3-3-3-3-------------------------------------------------|

Gtr 2.
e|--10---------------10---------------8---------------8-------------|
B|-------7-----8---------7-----8---------7-----8---------7-----8----|
G|------------------------------------------------------------------|
D|------------------------------------------------------------------|
A|------------------------------------------------------------------|
E|------------------------------------------------------------------|


Gtr 1
    G              Bm               C   
e|--3-3-3-3-3-3-3-3-2-3-3-3-3-3-3-3---------------------------------|
B|--3-3-3-3-3-3-3-3-3-3-3-3-3-3-3-3-1-1-0-0-1-1-0-0-1-1-0-0-1-1-0-0-|
G|--0-0-0-0-0-0-0-0-4-4-4-4-4-4-4-4-0-0-0-0-0-0-0-0-0-0-0-0-0-0-0-0-|
D|--0-0-0-0-0-0-0-0-4-4-4-4-4-4-4-4-2-2-2-2-2-2-2-2-2-2-2-2-2-2-2-2-|
A|--2-2-2-2-2-2-2-2-----------------3-3-3-3-3-3-3-3-3-3-3-3-3-3-3-3-|
E|--3-3-3-3-3-3-3-3-------------------------------------------------|

Gtr 2.
e|--10---------------10---------------8---------------8-------------|
B|-------7-----8---------7-----8---------7-----8---------7-----8----|
G|------------------------------------------------------------------|
D|------------------------------------------------------------------|
A|------------------------------------------------------------------|
E|------------------------------------------------------------------|

Both Guitars:times 4          G (let ring)
e|--------------------------|-3-|
B|-3--3---3-3-3-------------|-3-|
G|-2--2---2-2-2-------------|-0-|
D|-0--0---0-0-0-------------|-0-|
A|--------------3---2---0---|-2-|
E|--------------------------|-3-|

            
            
Suggest correction
Creating personal tab
Creating personal tab
You can edit any tab online and save it as your Personal.

You can edit, replace or remove any tab part or add personal notes – all changes will be seen only by you.

Personal tabs can be accessed anytime from any device, even offline.
Learn more »
Give kudos to tab author, rate the tab!
1 2 3 4 5
comments
print report bad tab
3 comments total.
0 reply
Shmiff 10 Sep 01, 2010 11:27 AM

I think Kelly alternates between Cmaj and Cmaj7 (lifting the first finger every alternate strum) At least, that's what I think after watching the video :)

0 reply
Shmiff 10 Sep 11, 2010 10:45 AM

I think Kelly alternates between Cmaj and Cmaj7 during the verses (lifting the first finger every two strums) At least, that's what I think after watching the video :)

0 reply
ScottishGibson 31 Nov 26, 2010 10:59 AM

He does, i noticed that not long after i put it on.

guest
You may want to rate the tab now too:
select rating
Wanna post a correction for this tab? Suggest correction