Oops, an error
Loading. Please wait.

The Bartender And The Thief tab

version 1
version 1

Whole song

Interactive

4,235 views 6 this week
1 commentread comment
1 2 3 4 5
x 4
add to favorites
×
Save as Personal and add changes to this tab that will be seen only by you. Learn more ›
×
You can save this tab as Personal to edit and correct it or add notes. All changes will be seen only by you. Learn more »
launch autoscroll
font size
0
reset
how to read this tab
guitar tuner
edit
Autoscroll
slow
fast
+/-
esc
set tempo
stop
Tabbed by sixwheeledbeast
Stereophonics - The Bartender and the Thief
Tuning: Drop D (DADGBE)

Here it is ... I am pretty sure you won't be disappointed,
I have listened to and played this song so much!

PM any questions/corrections thanks, rate please.

KEY
PM..  - palm mute
x     - muted string
[5]   - pinch harm


#Intro (0:00)
e|---------------------------|
b|---------------------------|
g|---------------------------|
D|-5--5--5--5--5--5--5-------|
A|-5--5--5--5--5--5--5-------|
D|-5--5--5--5--5--5--5-3-5-3-|

#Verse (0:03)- It sounds odd at first but go with it. 
    F5#11
e|-------------------------------------------------|
b|--6-6-x-6--6---6-x-x-6-6-x-6-6--6--6-x-6--6-x-6--|
g|--4-4-x-4--4---4-x-x-4-4-x-4-4--4--4-x-4--4-x-4--|
D|--5-5-x-5--5---5-x-x-5-5-x-5-5--5--5-x-5--5-x-5--|
A|--3-3-x-3--3---3-x-x-3-3-x-3-3--3--3-x-3--3-x-3--|
D|--3-3-x-3--3---3-x-x-3-3-x-3-3--3--3-x-3--3-x-3--|

 |------------------------|------------------------|
 |------------------------|------------------------|:
 |------------------------|------------------------|
 |------------------------|------------------------|
 |3/5-55h8-55h8-55--------|3/5-55h8-55h8-55--------|:
 |-----------------3-5-3-0|-----------------3-5-3-0|x2

#Pre-Chorus (00:27)
e|----------------------------------|
b|----------------------------------|
g|----------------------------------|
D|/8---8--8--8-8--8-5---5--5--5-x--5|
A|/8---8--8--8-8--8-5---5--5--5h8--5|
D|/8---8--8--8-8--8-5---5--5--5-5--5|

e|----------------------------------|
b|----------------------------------|
g|----------------------------------|
D|/8---8--8--8-8--8-5---5--5--5-x--5|
A|/8---8--8--8-8--8-5---5--5--5h8--5|
D|/8---8--8--8-8--8-5---5--5--5-5--5|

e|----------------------------------|
b|----------------------------------|
g|----------------------------------|
D|/8---8--8--8-8--8-5---5--5--5-5--5|
A|/8---8--8--8-8--8-5---5--5--5-5--5|
D|/8---8--8--8-8--8-5---5--5--5-5--5|

e|----------------------------------|
b|----------------------------------|
g|----------------------------------|
D|-5-55-x-55-x-55-x-55-x-55-x-55-5--|
A|-5-55h8-55h8-55h8-55h8-55h8-55-5--|
D|-5-55-5-55-5-55-5-55-5-55-5-55-5--|


#Chorus (0:40)
e|------------------------------|
b|3--3-3-3-3-3------------------|:
g|2--2-2-2-2-2------------------|
D|0--0-0-0-0-0--5---5--5-5---5--|
A|0--0-0-0-0-0--5---5--5-5---5--|:
D|0--0-0-0-0-0--5---5--5-5---5--|x4

#Verse (0:50)
#Pre-Chorus (1:15)
#Chorus (1:26)

#Solo {Guitar 1} (1:38) - with Wah
e|---------------------------|
b|-------11-11--10---8--8\\--|:
g|-------10-10---9---7--7\\--|
D|---------------------------|
A|---------------------------|:
D|-3~//----------------------|x2

e|---------------------------|
b|---------------------------|
g|---------------------------|
D|---------------------------|
A|-3/5-55h8-55h8-55----------|
D|-------------------3-5-3-0-|

e|---------------------------|
b|---------------------------|
g|--------------------5/7~--\|
D|--------------------5/7~--\|
A|-3/5-55h8-55h8-55---------\|
D|---------------------------|

e|---------------------------|
b|-------11-11--10---8--8\\--|:
g|-------10-10---9---7--7\\--|
D|---------------------------|
A|---------------------------|:
D|-3~//----------------------|x2

e|---------------------------|
b|---------------------------|
g|---------------------------|
D|---------------------------|
A|-3/5-55h8-55h8-55----------|
D|-------------------3-5-3-0-|

e|---------------------------|
b|---------------------------|
g|--------------------5/7~~~\|
D|--------------------------\|
A|-3/5-55h8-55h8-55---------\|
D|---------------------------| 
>>Wah Off

#Pre-Chorus (2:02)
#Chorus (2:14)

#Chorus x3 {Guitar 1} (2:26) 

Riff played under Chorus until Ending {Guitar 2}(2:26)
e|-------------------------|---------------------------|
b|---------------10--------|---------------10----------|:
g|10/11-11-10-11------7~~~/|10/11-11-10-11----7~7~~----|
D|-------------------------|-----------------------9-7~|
A|-------------------------|---------------------------|:
D|-------------------------|---------------------------|x3

#Ending
e|-------------------------|
b|-------------------------|
g|-------------------------|
D|--------3///12\\---------|
A|--------3///12\\---------|
D|3p2p0-0h3///12\\---------|

            
            
Suggest correction
Creating personal tab
Creating personal tab
You can edit any tab online and save it as your Personal.

You can edit, replace or remove any tab part or add personal notes – all changes will be seen only by you.

Personal tabs can be accessed anytime from any device, even offline.
Learn more »
comments
print report bad tab
1 comment total.
0 reply
k20a.jay 10 Nov 05, 2017 07:59 AM

brilliant tab! clearly written and sounds awesome! 5* man

guest
You may want to rate the tab now too:
select rating
Wanna post a correction for this tab? Suggest correction