Oops, an error
Loading. Please wait.

Summer Girl tab

version 3
version 3

Whole song

by Stereos
3,792 views 1 this week
1 commentread comment
1 2 3 4 5
1 last vote to show rating
add to favorites
×
Save as Personal and add changes to this tab that will be seen only by you. Learn more ›
×
You can save this tab as Personal to edit and correct it or add notes. All changes will be seen only by you. Learn more »
launch autoscroll
font size
0
reset
how to read this tab
guitar tuner
edit
Autoscroll
slow
fast
+/-
esc
set tempo
stop
First Tab. Rate and Comment please.

Intro
E--------------|--------------|
B--------------|--------------|
G--------4--4--|--------4-----|
D--2--2--4--4--|--4--4--4--4--|
A--2--2--2--2--|--4--4--2--4--|
D--2--2--------|--4--4-----4--|


Verse
E--------------|--------------|--------------|---------------|
B--------------|--------------|--------------|---------------|
G--------4-----|--------4-----|--------4-----|---------------|
D--2-----4-----|--4-----4--4--|--2-----4-----|--4---4-4---4--|
A--2-----2-----|--4-----2--4--|--2-----2-----|--4---4-4---4--|
D--2-----------|--4--------4--|--2-----------|--4---4-4---4--|


Pre-Chorus
E--------------|--------------|--------------|---------------|
B--------------|--------------|--------------|---------------|
G--4-----------|--------------|--------4-----|---------------|
D--4-----2-----|--4-----6--4--|--2-----4-----|--4------------|
A--2-----2-----|--4-----6--4--|--2-----2-----|--4------------|
D--------2-----|--4-----6--4--|--2-----------|--4------------|

E--------------|
B--0--0--0--0--|
G--4--4--4--4--|- Played at same time as Pre-Chorus. Not exact timing.
D--------------|
A--------------|
D--------------|


Chorus
E--------------|--------------|
B--------------|--------------|
G--------4--4--|--------4-----|
D--2--2--4--4--|--4--4--4--4--|
A--2--2--2--2--|--4--4--2--4--|
D--2--2--------|--4--4-----4--| x2

Verse
E--------------|--------------|
B--------------|--------------|
G--------4-----|--------------|
D--2-----4-----|--4-----------|
A--2-----2-----|--4-----------|
D--2-----------|--4-----------|

      Bass
|-------------------------------|
E--------------|----------------|
B--------------|----------------|
G--------------|----------------|
D--------------|------4-4--4----|
A--------2-----|------4-4--4----|
D--2-----------|--4---4-4--4----|

Pre-Chorus
E--------------|--------------|--------------|---------------|
B--------------|--------------|--------------|---------------|
G--4-----------|--------------|--------4-----|---------------|
D--4-----2-----|--4-----6--4--|--2-----4-----|--4------------|
A--2-----2-----|--4-----6--4--|--2-----2-----|--4------------|
D--------2-----|--4-----6--4--|--2-----------|--4------------|

E--------------|
B--0--0--0--0--|
G--4--4--4--4--|- Played at same time as Pre-Chorus. Not exact timing.
D--------------|
A--------------|
D--------------|

Chorus
E--------------|--------------|
B--------------|--------------|
G--------4--4--|--------4-----|
D--2--2--4--4--|--4--4--4--4--|
A--2--2--2--2--|--4--4--2--4--|
D--2--2--------|--4--4-----4--| x4


Breakdown
E--------------|--------------|--------------|
B--------------|--------------|--------------|
G--------(4)---|--------------|--------------|
D--(2)---(4)---|--(4)---(6)---|--(4)---------| - let ring
A--(2)---(2)---|--(4)---(6)---|--(4)---------|
D--(2)---------|--(4)---(6)---|--(4)---------|


Verse 2
E--------------|--------------|--------------|
B--------------|--------------|--------------|
G--------------|--------------|--------------|
D--2---2-4-6---|--6--6----4---|--4-4---6--4--|
A--2---2-4-6---|--6--6----4---|--4-4---6--4--|
D--2---2-4-6---|--6--6----4---|--4-4---6--4--|

                                       Not played second time
                                      |-------|
E--------------|--------------|-------|-------|
B--------------|--------------|-------|-------|
G--------------|--------------|-------|-------|
D--2---2-4-6---|--6--6----4---|--(4)--|-6--4--|
A--2---2-4-6---|--6--6----4---|--(4)--|-6--4--|
D--2---2-4-6---|--6--6----4---|--(4)--|-6--4--| x2

    Bass
|--------------|
G--------------|
D--------------|
A--------2-----|
D--2-----------|


Chorus
E--------------|--------------|
B--------------|--------------|
G--------4--4--|--------4-----|
D--2--2--4--4--|--4--4--4--4--|
A--2--2--2--2--|--4--4--2--4--|
D--2--2--------|--4--4-----4--| x4


End Chorus
E--------------|--------------|
B--------------|--------------|
G--------4-----|--------4-----|
D--2-----4-----|--4-----4-----|
A--2-----2-----|--4-----2-----|
D--2-----------|--4-----------|

Thanks. Enjoi =)
JR

            
            
Suggest correction
Creating personal tab
Creating personal tab
You can edit any tab online and save it as your Personal.

You can edit, replace or remove any tab part or add personal notes – all changes will be seen only by you.

Personal tabs can be accessed anytime from any device, even offline.
Learn more »
Give kudos to tab author, rate the tab!
1 2 3 4 5
comments
print report bad tab
1 comment total.
0 reply
Drazorback123 180 Sep 26, 2009 06:17 AM

Pretty awesome job man keep it up.

guest
You may want to rate the tab now too:
select rating
Wanna post a correction for this tab? Suggest correction