Oops, an error
Loading. Please wait.

Galway Girl solo tab

version 1
version 1

Solo

37,790 views 15 this week
3 commentsread comments
1 2 3 4 5
x 10
add to favorites
×
Save as Personal and add changes to this tab that will be seen only by you. Learn more ›
×
You can save this tab as Personal to edit and correct it or add notes. All changes will be seen only by you. Learn more »
launch autoscroll
font size
0
reset
how to read this tab
guitar tuner
edit
Autoscroll
slow
fast
+/-
esc
set tempo
stop
Author
-------------------------------------------------------------------------------
                             Steve Earle-Galway Girl
-------------------------------------------------------------------------------
Tabbed by:Emmett Daly
Email:therealemmettdaly@hotmail.com

Hey all this is my first submitted tab. I was searching for how to play this song
but all i could find was chords. I managed to figure out the instrumental bits
in the middle. 

Feel free to correct me.

Tuning: standard

e|---------------------------------------------------------------------------|
B|------------------------------------12--12--12--12--12--14--12--10---------|
G|-9/11--9------9-11-11-11-11--9--------------------------------------12-----|
D|---------12---------------------12-----------------------------------------|
A|---------------------------------------------------------------------------|
E|---------------------------------------------------------------------------|

e|---------------------------------------------------------------------------|
B|-12--14--12---10--12--10---------------------------------------------------|
G|--------------------------12--11--9--11-----9h11---9-----------------------|
D|-------------------------------------------------------12--12--------------|
A|---------------------------------------------------------------------------|
E|---------------------------------------------------------------------------|


************************************

| /  Slide up
| h  Hammer-on

************************************

            
            
Suggest correction
Creating personal tab
Creating personal tab
You can edit any tab online and save it as your Personal.

You can edit, replace or remove any tab part or add personal notes – all changes will be seen only by you.

Personal tabs can be accessed anytime from any device, even offline.
Learn more »
comments
print report bad tab
3 comments total.
+1 reply
dylanbob 31 Jul 17, 2008 02:13 AM

sweet tab

0 reply
MangeuDePoutine 1,289 May 04, 2009 02:13 PM

I ain't sure about your last note

e|---------------------------------------------------------------------------|
B|------------------------------------12--12--12--12--12--14--12--10---------|
G|-9/11--9------9-11-11-11-11--9--------------------------------------12-----|
D|---------12---------------------12-----------------------------------------|
A|---------------------------------------------------------------------------|
E|---------------------------------------------------------------------------|

Instead of a 12 on the G string it should be a 11... (I think)

Except that very good tab 5*

0 reply
ticklemypickle8 10 Sep 02, 2011 06:54 AM

nice job, i like it :)

guest
You may want to rate the tab now too:
select rating
Wanna post a correction for this tab? Suggest correction