Oops, an error
Loading. Please wait.

Some tab

6,460 views 222 this week
no commentswrite comment
1 2 3 4 5
x 3
add to favorites
×
Save as Personal and add changes to this tab that will be seen only by you. Learn more ›
×
You can save this tab as Personal to edit and correct it or add notes. All changes will be seen only by you. Learn more »
launch autoscroll
font size
0
reset
how to read this tab
guitar tuner
edit
Autoscroll
slow
fast
+/-
esc
set tempo
stop
Author
Difficulty
-------------------------------------------------------------------------------
                             Some - Steve Lacy
-------------------------------------------------------------------------------

Tabbed by: carterkelliott
Tuning: Standard

[Chords]

Amadd2 - xx7557
D7sus4 - x5758x
Cmaj7 - x3545x
Bmin7 - x2423x
Abmin7 - 4x444x

-------------------------------------------------------------------------------

[Chorus/Solo Rhythm Guitar]

Amadd2                      D7sus4
  Baby, I want some of your love

  Cmaj7  Bmin7   Abmin7 Amadd2
  Your   love,   your   love

                                D7sus4
  Baby, can I have some of your love

  Cmaj7  Bmin7   Abmin7
  Your   love,   your   

[Verse]
e|-------7--------------7--------------------------------------|
B|----------5--------------5-----------8------5-------3--------|
G|-----5------5-------5------5-------5--------------2--------4-|
D|---5----------5---5----------5---7--------5-----4--------4---| x2
A|-0--------------0--------------5--------3-----2--------------|
E|-------------------------------------------------------4-----|

[Solo]
e|--10h12---10-------------------------------------------------|
B|-----------------13-12---------------------------------------|
G|-----------------------12---------------------12-14-14b16r14-|
D|--------------------------12-14---------12h14----------------|
A|-------------------------------------------------------------|
E|-------------------------------------------------------------|

e|-------------------------------------------------------------|
B|--15b17-15~~-----13-12----12-15-12~~----10h12p10-------------|
G|-----------------------14------------------------12-12p11----|
D|-------------------------------------------------------------|
A|-------------------------------------------------------------|
E|-------------------------------------------------------------|

[Outro - Guitar 1 (main riff)]
e|---------------------------------|
B|-------0-------0-----0---------0-|
G|-----3-------3---------3-----3---|
D|---4-------4-------4-------4-----|
A|---------------------------------|
E|-4-------4-------4-------4-------|

e|-------2-------2-------2-----2---|
B|-----3-------3-------3-------2---|
G|---0-------0-------0-----0---2---|
D|-------------------------2---2---|
A|-2-------2-------2-------2---4---| x6
E|-0-------0-------0-------0---2---|

[Outro - Guitar 2 (comes in at 2:08)]
e|---------------------------------|
B|---------------------------------|
G|-11----------------------11------|
D|-13----------------------13------|
A|---------------------------------|
E|---------------------------------|

e|---------------------------------|
B|---------------------------------|
G|-7-------------------------------|
D|-9-------------------------------| x3
A|---------------------------------|
E|---------------------------------|

[Outro - Guitar 3 (comes in at 2:17)]
e|---------------------------------|
B|---------------------------------|
G|-----------------------------9-10|
D|--------------------------10-----|
A|---------------------------------|
E|---------------------------------|

e|---------------------------------|
B|---------------------------------|
G|------------10-9-10--------------|
D|---------------------------------|
A|---------------------------------|
E|---------------------------------|

e|---------------------------------|
B|---------------------------------|
G|-----------------------------9-10|
D|--------------------------10-----|
A|---------------------------------|
E|---------------------------------|

e|---------------------------------|
B|---------------------------------|
G|---10---9--10-9-10---9--10-9-----|
D|---------------------------------|
A|---------------------------------|
E|---------------------------------|

************************************

| h   Hammer-on
| t   Tapping
| b   Bend
| r  Bend release
| ~   Vibrato

************************************

            
            
Suggest correction
Creating personal tab
Creating personal tab
You can edit any tab online and save it as your Personal.

You can edit, replace or remove any tab part or add personal notes – all changes will be seen only by you.

Personal tabs can be accessed anytime from any device, even offline.
Learn more »
Give kudos to tab author, rate the tab!
1 2 3 4 5
comments
print report bad tab
guest
You may want to rate the tab now too:
select rating
Wanna post a correction for this tab? Suggest correction