Oops, an error
Loading. Please wait.

Rock N Me tab

version 2
version 2

Whole song

5,055 views 3 this week
1 commentread comment
1 2 3 4 5
x 3
add to favorites
×
Save as Personal and add changes to this tab that will be seen only by you. Learn more ›
×
You can save this tab as Personal to edit and correct it or add notes. All changes will be seen only by you. Learn more »
launch autoscroll
font size
0
reset
how to read this tab
guitar tuner
backing track
0:00
0:00
edit
Autoscroll
slow
fast
+/-
esc
set tempo
stop
Author
These are 2 ways i play it;

This first one is tuned DADGBe

-------------------------------------------------------------|
-------------------------------------------------------------|
------------------------------------------9---9--------------|
------------------9--9----------9----9--------9--------------|
------7--7---9----7--7---9----9b--9b---9b--9b----9-----------|
------7--7---9-----------9-----------------------9-----------|


-------------------------------------------------------------|
-------------------------------------------------------------|
------------------------------------------9---9--------------|
------------------9--9----------9----9--------9--------------|
------7--7---9----7--7---9----9b--9b---9b--9b----9-----------|
------7--7---9-----------9-----------------------9-----------|


-------------------------------------------------------------|
-------------------------------------------------------------|
-------------------------------------------------------------|
-----------------0-----------------------------0-------------|
---------0---2--------0----2-----------0---2-------0---2-----|
-----4-----------------------------4-------------------------|


-----------------------------------------------------------------|
-----------------------------------------------------------------|
-----------------------------------------------------------------|
-----------------------------------------------------------------|
-7-7-9-7-7-7-9-7-7-7-9-7-7-7-9-7-5-5-7-5-5-5-7-5-5-5-7-5-5-5-7-5-|
-7-7-7-7-7-7-7-7-7-7-7-7-7-7-7-7-5-5-5-5-5-5-5-5-5-5-5-5-5-5-5-5-|


-----------------------------------------------------------------|
-----------------------------------------------------------------|
-----------------------------------------------------------------|
-----------------------------------------------------------------|
-3-3-5-3-3-3-5-3-3-3-5-3-3-3-5-3-5-5-7-5-5-5-7-5-5-5-7-5-5-5-7-5-|
-3-3-3-3-3-3-3-3-3-3-3-3-3-3-3-3-5-5-5-5-5-5-5-5-5-5-5-5-5-5-5-5-|


-----------------------------------------------------------------|
-----------------------------------------------------------------|
-----------------------------------------------------------------|
-----------------------------------------------------------------|
-7-7-9-7-7-7-9-7-7-7-9-7-7-7-9-7-5-5-7-5-5-5-7-5-5-5-7-5-5-5-7-5-|
-7-7-7-7-7-7-7-7-7-7-7-7-7-7-7-7-5-5-5-5-5-5-5-5-5-5-5-5-5-5-5-5-|


-----------------------------------------------------------------|
-----------------------------------------------------------------|
-----------------------------------------------------------------|
-----------------------------------------------------------------|
-3-3-5-3-3-3-5-3-3-3-5-3-3-3-5-3-5-5-7-5-5-5-7-5-5-5-7-5-5-5-7-5-|
-3-3-3-3-3-3-3-3-3-3-3-3-3-3-3-3-5-5-5-5-5-5-5-5-5-5-5-5-5-5-5-5-|

*****************************************************************


This is the 2nd way to play it with standard tuning.(EADGBe)


--------------------------[-------------------------------]--|
---------------5--5-------[------------------5-----5------]--|
--2--2---4-----4--4---4---[------4-----4-----------4---4--]--|
--2--2---4------------4---[--4h6---4h6---4h6---4h6-----4--]--|
--------------------------[-------------------------------]--|
--------------------------[-------------------------------]--|


-------------------------------------------------------------|
---------------5--5--------------------------5-----5---------|
--2--2---4-----4--4---4----------4-----4-----------4---4-----|
--2--2---4------------4------4h6---4h6---4h6---4h6-----4-----|
-------------------------------------------------------------|
-------------------------------------------------------------|


-------------------------------------------------------------|
-------------------------------------------------------------|
-------------------------------------------------------------|
-----------------0--------------------------0----------------|
----------0---2------0--2-----------0---2-------0---2--------|
------2-------------------------2----------------------------|


-----------------------------------------------------------------|
-5-5-7-5-5-5-7-5-5-5-7-5-5-5-7-5---------------------------------|
-4-4-4-4-4-4-4-4-4-4-4-4-4-4-4-4-4-4-6-4-4-4-6-4-4-4-6-4-4-4-6-4-|
---------------------------------4-4-4-4-4-4-4-4-4-4-4-4-4-4-4-4-|
-----------------------------------------------------------------|
-----------------------------------------------------------------|


-----------------------------------------------------------------|
-----------------------------------------------------------------|
-2-2-4-2-2-2-4-2-2-2-4-2-2-2-4-2-4-4-6-4-4-4-6-4-4-4-6-4-4-4-6-4-|
-2-2-2-2-2-2-2-2-2-2-2-2-2-2-2-2-4-4-4-4-4-4-4-4-4-4-4-4-4-4-4-4-|
-----------------------------------------------------------------|
-----------------------------------------------------------------|


-----------------------------------------------------------------|
-5-5-7-5-5-5-7-5-5-5-7-5-5-5-7-5---------------------------------|
-4-4-4-4-4-4-4-4-4-4-4-4-4-4-4-4-4-4-6-4-4-4-6-4-4-4-6-4-4-4-6-4-|
---------------------------------4-4-4-4-4-4-4-4-4-4-4-4-4-4-4-4-|
-----------------------------------------------------------------|
-----------------------------------------------------------------|


-----------------------------------------------------------------|
-----------------------------------------------------------------|
-2-2-4-2-2-2-4-2-2-2-4-2-2-2-4-2-4-4-6-4-4-4-6-4-4-4-6-4-4-4-6-4-|
-2-2-2-2-2-2-2-2-2-2-2-2-2-2-2-2-4-4-4-4-4-4-4-4-4-4-4-4-4-4-4-4-|
-----------------------------------------------------------------|
-----------------------------------------------------------------|

                For The Part Indicated With [Brakets]
                        Hold on these frets;

                              -------|
                              --5----|
                              --4----|
                              --4----|
                              -------|
                              -------|
             With your index finger holding the 4th fret
                And your middle finger on the 5th fret
           And your ring finger ready to hit that 6th fret


Index:

h - hammer on
p - pull off
/ - slide
b - bend

Thats it. Merry Christmas and Happy Playing!

            
            
Suggest correction
Creating personal tab
Creating personal tab
You can edit any tab online and save it as your Personal.

You can edit, replace or remove any tab part or add personal notes – all changes will be seen only by you.

Personal tabs can be accessed anytime from any device, even offline.
Learn more »
Give kudos to tab author, rate the tab!
1 2 3 4 5
comments
print report bad tab
1 comment total.
0 reply
SG1400 10 Feb 21, 2015 03:31 PM

Seems legit

guest
You may want to rate the tab now too:
select rating
Wanna post a correction for this tab? Suggest correction