Oops, an error
Loading. Please wait.

Down Deep Into The Pain bass

version 1
version 1

Whole song

Interactive

260 views 1 this week
no commentswrite comment
1 2 3 4 5
3 more votes to show rating
add to favorites
×
Save as Personal and add changes to this tab that will be seen only by you. Learn more ›
×
You can save this tab as Personal to edit and correct it or add notes. All changes will be seen only by you. Learn more »
launch autoscroll
font size
0
reset
guitar tuner
edit
Autoscroll
slow
fast
+/-
esc
set tempo
stop
Author
     
 4/4
  Gtr I
                                    ~~~~~~~
|---------|-----------|-----------------------|-----------|-----------------|
|---------|-----------|---------12h14-(14)----|-----------|-----------------|
|---------|------7----|-----------------------|------7----|------7-6-(6)-5--|
|---------|-0---------|-0-0-(0)---------------|-0---------|-0---------------|


                                                                   ~
|-----------|------/16-18-(18)-19\-|-----------|---------------------||
|-----------|----------------------|-----------|---------------------||
|-----------|----------------------|-----------|---------------------||
|-3----3----|-3--------------------|-3----3----|-2--1--0-0-1-(1)-2-3-||


  Double time Q=200
  N.C.(A5)
   ~~~                               ~~~
|------------------|-------------------|
|------------------|-------------------|
|-----0-0---0--0-0-|-3-3s5-3-2-0-------|
|-(3)-----3--------|-------------3-0-3-|


                                     Gtr II
 ~~~~~
|------------------|-------------------5--|
|------------------|-----------5-6-7------|
|-----0-0---0--0-0-|-3-4-5-5s7------------|
|-(3)-----3--------|-----------------3----|


          Gtr I
                                      ~~~~~~~~                               ~
|-(5)---5-----------|-------------------|----------------|-/14-13-12\----------|
|-------------------|-------------------|----------------|-/14-13-12\--7-6-5---|
|------------0--0-0-|-3-3s5-3-2-0-------|-----0-0---0----|-------------7-6-5---|
|-----3---3---------|-------------3-0-3-|-(3)-----3------|-------------------3-|


                                                                        Gtr II
   ~~~                              ~~~~~~~~
|-----------------|-------------------|-----------------|-----------------5-|
|-----------------|-------------------|-----------------|-------5-5-6-7-----|
|-----0-0---0--0--|-3-3s5-3-2-0-------|-----0-0---0--0--|-3-4-5-------------|
|-(3)-----3-------|-------------3-0-3-|-(3)-----3-------|---------------3---|


          Gtr I
|-(5)---5----------|-------------------|
|------------------|-------------------|
|------------0--0--|-3-3s5-3-2-0-------|
|-----3---3--------|-------------3-0-0-|


|-----------------|----------------------||
|-----------------|----------------------||
|-0----5-(5)-0----|-----0--0-3-2-0-------||
|---3-----------3-|-(3)------------3b3.5-||


 Verse 1
  (E)                                   (D)
|-----------------|-------------------|-----------------|--------------------|
|-----------------|-------------------|-----------------|--------------------|
|-----------------|-------------------|-----------------|--------------------|
|-(3)-0-0--0--x-x-|-0--x-0--x-x-3b3.5-|-(3)-0-0--0--x-x-|-0--x-0--x-x-3b3.5--|


  (A)                                   (E/Ab)
                                                                       ~
|-----------------|-------------------|-----------------|-----------------|
|-----------------|-------------------|-----------------|--------------5--|
|-----------------|-------------------|-----------------|------2s5-6-7----|
|-(3)-0-0--0--x-x-|-0--x-0--x-x-3b3.5-|-(3)-0-0--0--x-x-|-0--x------------|


  (E)                                  (D)
   ~~~
|----------------|-------------------|-----------------|--------------------|
|-(5)------------|-------------------|-----------------|--------------------|
|----------------|-------------------|-----------------|--------------------|
|------0--0--x-x-|-0--x-0--x-x-3b3.5-|-(3)-0-0--0--x-x-|-0--x-0--x-x-3b3.5--|


  (A)                                   (E/Ab)                        Dadd9/E
                                                                      ~
|-----------------|-------------------|---------------|------------------|
|-----------------|-------------------|---------------|-7-6-5------------|
|-----------------|-------------------|---------------|-------7-6-5---5--|
|-(3)-0-0--0--x-x-|-0--x-0--x-x-3b3.5-|-(3)-0-0--0----|-------------7----|


   ~~~
|-----------------|-------------------|-----------------|----------------|
|-----------------|-------------------|-----------------|----------------|
|-(5)-------------|-------------------|-----------------|----------------|
|-----0-0--0--x-x-|-0--x-0--x-x-3b3.5-|-(3)-0-0--0--x-x-|-0-------3b3.5--|


  E                                                                    Dadd9/E
|-----------------|-------------------|----------------|------------------|
|-----------------|-------------------|----------------|---------------5--|
|-----------------|-------------------|----------------|-------5-6-7------|
|-(3)-0-0--0--x-x-|-0--x-0--x-x-3b3.5-|-(3)-0-0--0---3s|=5-6-7-------7----|


|----------------|-------------------|-----------------|--------------------|
|-(5)------------|-------------------|-----------------|--------------------|
|----------------|-------------------|-----------------|--------------------|
|------0--0--x-x-|-0--x-0--x-x-3b3.5-|-(3)-0-0--0--x-x-|-0--x-0--x-x-3b3.5--|


  E
|-----------------|-------------------|----------------|-------------------||
|-----------------|-------------------|----------------|-----7\----9---7\--||
|-----------------|-------------------|--------------5-|-6-7-----7---7-----||
|-(3)-0-0--0--x-x-|-0--x-0--x-x-3b3.5-|-(3)-0-0--0-----|-------------------||


 Pre-Chorus
                        TP       ~
|---------|----------|-------------||
|---------|----------|-------------||
|---------|-------3S=|=22\---------||
|---------|----------|-----------3-||


 Chorus
  N.C.(A5)
   ~~~                               ~~~
|------------------|-------------------|
|------------------|-------------------|
|-----0-0---0--0-0-|-3-3s5-3-2-0-------|
|-(3)-----3--------|-------------3-0-3-|


                                     Gtr II
 ~~~~~
|------------------|-------------------5-|
|------------------|-----------5-6-7-----|
|-----0-0---0--0-0-|-3-4-5-5s7-----------|
|-(3)-----3--------|-----------------3---|


          Gtr I
                                      ~~~~~~~~                               ~
|-(5)---5-----------|-------------------|----------------|-/14-13-12\----------|
|-------------------|-------------------|----------------|-/14-13-12\--7-6-5---|
|------------0--0-0-|-3-3s5-3-2-0-------|-----0-0---0----|-------------7-6-5---|
|-----3---3---------|-------------3-0-3-|-(3)-----3------|-------------------3-|


 Verse 2
  (E)                                   (D)
|-----------------|-------------------|-----------------|--------------------|
|-----------------|-------------------|-----------------|--------------------|
|-----------------|-------------------|-----------------|--------------------|
|-(3)-0-0--0--x-x-|-0--x-0--x-x-3b3.5-|-(3)-0-0--0--x-x-|-0--x-0--x-x-3b3.5--|


  (A)                                   (E/Ab)
                                                                       ~
|-----------------|-------------------|-----------------|-----------------|
|-----------------|-------------------|-----------------|--------------5--|
|-----------------|-------------------|-----------------|------2s5-6-7----|
|-(3)-0-0--0--x-x-|-0--x-0--x-x-3b3.5-|-(3)-0-0--0--x-x-|-0--x------------|


  (E)                                  (D)
   ~~~
|----------------|-------------------|-----------------|--------------------|
|-(5)------------|-------------------|-----------------|--------------------|
|----------------|-------------------|-----------------|--------------------|
|------0--0--x-x-|-0--x-0--x-x-3b3.5-|-(3)-0-0--0--x-x-|-0--x-0--x-x-3b3.5--|


  (A)                                   (E/Ab)                        Dadd9/E
                                                                      ~
|-----------------|-------------------|---------------|------------------|
|-----------------|-------------------|---------------|-7-6-5------------|
|-----------------|-------------------|---------------|-------7-6-5---5--|
|-(3)-0-0--0--x-x-|-0--x-0--x-x-3b3.5-|-(3)-0-0--0----|-------------7----|


   ~~~
|-------------------|-----------------|-------------------|------------------|
|-------------------|-----------------|-------------------|------------------|
|-(5)---------------|-----------5-6-7-|-(7)---------------|-----------5-6-7--|
|-----0-0-0-0-0-0-0-|-0-0-0-0-0-------|-----0-0-0-0-0-0-0-|-0-0-0-0-0--------|


  E                                                                       Dadd9/E
|-------------------|-----------------|-------------------|------------------|
|-------------------|-----------------|-------------------|---------------5--|
|-(7)---------------|-----------5-6-7-|-(7)---------------|-------5-6-7------|
|-----0-0-0-0-0-0-0-|-0-0-0-0-0-------|-----0-0-0-0-0-0-3s|=5-6-7-------7----|


|-------------------|-----------------|-------------------|------------------|
|-(5)---------------|-----------------|-------------------|------------------|
|-------------------|-----------5-6-7-|-(7)---------------|-----------5-6-7--|
|-----0-0-0-0-0-0-0-|-0-0-0-0-0-------|-----0-0-0-0-0-0-0-|-0-0-0-0-0--------|


  E
|-------------------|-----------------|
|-------------------|-----------------|
|-(7)---------------|-----------5-6-7-|
|-----0-0-0-0-0-0-0-|-0-0-0-0-0-------|


|-------------------|
|-------------------|
|-(7)---------------|
|-----0-0-0-0-0-0-0-|


  Gtr II
|-7------7------7------7------7------7------7------7-------||
|----------------------------------------------------------||
|----------------------------------------------------------||
|---hx-5---hx-5---hx-5---hx-5---hx-5---hx-5---hx-5---hx-5--||


 Pre-Chorus 2
            C5 C#5D5  C#5C5  C#5       D5 C#5C5 C#5D5 C#5
  Gtr I
|---------|---------------------|-------------------------|
|---------|-10-11-12--11-10--11-|-(11)-12-11-10-11-12-11--|
|---------|-10-11-12--11-10--11-|-(11)-12-11-10-11-12-11--|
|---------|---------------------|-------------------------|


  B5C5 C#5D5 C#5C5  D#5  D5 C#5C5 B5A#A5G#5
                                          ~
|----------------------|--------------------||
|-9-10-11-12-11-10--13-|-12-11-10-9-8-7-6---||
|-9-10-11-12-11-10--13-|-12-11-10-9-8-7-6---||
|----------------------|------------------3-||


 Chorus 2
  $
  N.C.(A5)
   ~~~                               ~~~
|------------------|-------------------|
|------------------|-------------------|
|-----0-0---0--0-0-|-3-3s5-3-2-0-------|
|-(3)-----3--------|-------------3-0-3-|


                                       Gtr II
 ~~~~~
|------------------|-------------------5-|
|------------------|-----------5-6-7-----|
|-----0-0---0--0-0-|-3-4-5-5s7-----------|
|-(3)-----3--------|-----------------3---|


          Gtr I
                                      ~~~~~~~~                               ~
|-(5)---5-----------|-------------------|----------------|-/14-13-12\----------|
|-------------------|-------------------|----------------|-/14-13-12\--7-6-5---|
|------------0--0-0-|-3-3s5-3-2-0-------|-----0-0---0----|-------------7-6-5---|
|-----3---3---------|-------------3-0-3-|-(3)-----3------|-------------------3-|


                                                                        Gtr II
   ~~~                              ~~~~~~~~
|-----------------|-------------------|-----------------|-----------------5-|
|-----------------|-------------------|-----------------|-------5-5-6-7-----|
|-----0-0---0--0--|-3-3s5-3-2-0-------|-----0-0---0--0--|-3-4-5-------------|
|-(3)-----3-------|-------------3-0-3-|-(3)-----3-------|---------------3---|


          Gtr I
|-(5)---5----------|-------------------|
|------------------|-------------------|
|------------0--0--|-3-3s5-3-2-0-------|
|-----3---3--------|-------------3-0-0-|


                            To Coda
|-----------------|----------------------||
|-----------------|----------------------||
|-0----5-(5)-0----|-----0--0-3-2-0-------||
|---3-----------3-|-(3)------------3b3.5-||


 Verse 3
  (E)                                   (D)
|-----------------|-------------------|-----------------|-------------------|
|-----------------|-------------------|-----------------|-------------------|
|-----------------|-------------------|-----------------|-------------------|
|-(3)-0-0--0--x-x-|-0--x-0--x-x-3b3.5-|-(3)-0-0--0--x-x-|-0--x-0--x-x-3b3.5-|


  (A)                                   (E/Ab)                         Dadd9/E
                                                                       ~
|-----------------|-------------------|-----------------|----------------|
|-----------------|-------------------|-----------------|--------------5-|
|-----------------|-------------------|-----------------|------2s5-6-7---|
|-(3)-0-0--0--x-x-|-0--x-0--x-x-3b3.5-|-(3)-0-0--0--x-x-|-0--x-----------|


   ~~~
|-------------------|---------------------|
|-(5)---------------|---------------------|
|-------------------|---------------------|
|-----0-0-0-0-0-0-0-|-0-0-0-0-0-0-0-3b3.5-|


|-------------------|---------------------|
|-------------------|---------------------|
|-------------------|---------------------|
|-(3)-0-0-0-0-0-0-0-|-0-0-0-0-0-0-0-3b3.5-|


  E
|-------------------|---------------------|
|-------------------|---------------------|
|-------------------|---------------------|
|-(3)-0-0-0-0-0-0-0-|-0-0-0-0-0-0-0-3b3.5-|


                                    Dadd9/E
|-------------------|-6-7-----------------|
|-------------------|-----8-0-------------|
|-------------------|---------5-4-0-------|
|-(3)-0-0-0-0-0-0-0-|---------------3b3.5-|


|-------------------|---------------------|
|-------------------|---------------------|
|-------------------|---------------------|
|-(3)-0-0-0-0-0-0-0-|-0-0-0-0-0-0-0-3b3.5-|


|-------------------|---------------------|
|-------------------|---------------------|
|-------------------|---------------------|
|-(3)-0-0-0-0-0-0-0-|-0-0-0-0-0-0-0-3b3.5-|


  E
|-----------------|---------------------|-------------------|----------------||
|-----------------|---------------------|-------------------|-------------5--||
|-----------------|---------------------|-------------------|-------5-6-7----||
|-3-0-0-0-0-0-0-0-|-0-0-0-0-0-0-0-3b3.5-|-(3)-0-0-0-0-0-0-0-|-5-6-7----------||


 Interlude
  Eb/E
|-------------|-------------------|-----------------|--------------------|
|-------------|-------------------|-----------------|--------------------|
|-------------|-------------------|-----------------|--------------------|
|---0--0--x-x-|-0--x-0--x-x-3b3.5-|-(3)-0-0--0--x-x-|-0--x-0--x-x-3b3.5--|


  F/E
|-----------------|-------------------|-----------------|---------------------|
|-----------------|-------------------|-----------------|-----15-14-13-12-13--|
|-----------------|-------------------|-----------------|---------------------|
|-(3)-0-0--0--x-x-|-0--x-0--x-x-3b3.5-|-(3)-0-0--0--x-x-|-0-------------------|


  Eb/E
|-----------------|-------------------|-----------------|--------------------|
|-(13)------------|-------------------|-----------------|--------------------|
|-----------------|-------------------|-----------------|--------------------|
|-------0--0--x-0-|-0--x-0--x-x-3b3.5-|-(3)-0-0--0--x-x-|-0--x-0--x-x-3b3.5--|


  F/E
|-----------------|-------------------|----------------|------------------|
|-----------------|-------------------|----------------|------------------|
|-----------------|-------------------|--------------5-|-7-7-5-5-3-3-2-2--|
|-(3)-0-0--0--x-x-|-0--x-0--x-x-3b3.5-|-(3)-0-0--0-----|------------------|


  E5
  Gtr II
|------------------|---------------------|
|----2---------2---|-------2---------2---|
|------------------|---------------------|
|-0----0-(0)-0---0-|-(0)-0---0-(0)-0---0-|


|------------------|----------------------|
|----2---------2---|-------2---------2----|
|------------------|----------------------|
|-0----0-(0)-0---0-|-(0)-0---0-(0)-0---0--|


  Gtr I
|-------------|-----------------|----------------|-----------------||
|-------------|-----------------|----------------|-----------------||
|-------------|-----------------|----------------|-----------------||
|-0---0-0---0-|-0---0---0-3b3.5-|-(3)-0-0--0--0--|-0-0--0-(0)-0----||


 Guitar Solo
             N.C.
                               ~~~~~~~~~~~~~~~~~~                  ~~
|---------||----------------------|-----------------15-16-|-15-16-15----|
|---------||-------13b15-(13)-13--|-(13)----(13)-/x-------|-------------|
|---------||---/x-----------------|-----------------------|-------------|
|---------||----------------------|-----------------------|-------------|


|--20b22==(20)------|-(20)--(20)r===(20)--|--16-15-14-13-12-------|
|-------------------|---------------------|-----------------16-15-|
|-------------------|---------------------|-----------------------|
|-------------------|---------------------|-----------------------|


|-------------------------|-------------------|-------14----14----------|
|-14-13-12----------------|-------------------|----14----14----14-13-12-|
|----------16-15-14-13-12-|-------------------|-12----------------------|
|-------------------------|-x-x-x-x-/x\--/x\--|-------------------------|


|--/17-----------15----|-------18----18----------|-------20-----------------|
|-------17-16-15----15-|-16-18----18----18-17-18-|-19-20----20-19-18-(18)\--|
|----------------------|-------------------------|--------------------------|
|----------------------|-------------------------|--------------------------|


                                   D.S. al Coda
   TP          TP          TP          TP      ~
|-20--------|-20--------|-20--------|-20----------||
|-19--------|-19--------|-19--------|-19----------||
|-18--------|-18--------|-18--------|-18----------||
|-17--------|-17--------|-17--------|-17-------3--||


    &
    (E)
||------------------|-------------------|
||o-----------------|-------------------|
||o-----------------|-------------------|
||--(3)-0-0--0--x-x-|-0--x-0--x-x-3b3.5-|


|-----------------|--------------------||
|-----------------|-------------------o||
|-----------------|-------------------o||
|-(3)-0-0--0--x-x-|-0--x-0--x-x-3b3.5--||


            
            
Suggest correction
Creating personal tab
Creating personal tab
You can edit any tab online and save it as your Personal.

You can edit, replace or remove any tab part or add personal notes – all changes will be seen only by you.

Personal tabs can be accessed anytime from any device, even offline.
Learn more »
Give kudos to tab author, rate the tab!
1 2 3 4 5
comments
print report bad tab
guest
You may want to rate the tab now too:
select rating
Wanna post a correction for this tab? Suggest correction