Oops, an error
Loading. Please wait.

For The Love Of God tab

version 4
4,598 views 1 this week
no commentswrite comment
1 2 3 4 5
3 more votes to show rating
add to favorites
×
Save as Personal and add changes to this tab that will be seen only by you. Learn more ›
×
You can save this tab as Personal to edit and correct it or add notes. All changes will be seen only by you. Learn more »
launch autoscroll
font size
0
reset
how to read this tab
guitar tuner
backing track
0:00
0:00
edit
Autoscroll
slow
fast
+/-
esc
set tempo
stop
Author
For The Love Of God - Steve Vai [acoustic]  loner113

E|------------------------------ 7|-------------- 7----------------|
B|--------------------------10----|---------- 8------ 8------------|
G|-------------------- 7----------|------11--------------11--------|
D|---------------- 9--------------|-- 9---------------------- 9----|
A|--------------------------------|--------------------------------|
E|------------------------------ 0|------------------------------ 0]

E|--------------12--10-- 7------ 7|----------10--------------------|
B|-------------------------- 8----|--------------10----------------|
G|------------ 0---------------- 9|-------- 9-------- 9------ 9----|
D|-------- 4----------------------|----10----------------10--------|
A|---- 2--------------------------| 8------------------------------|
E|--------------------------------|--------------------------------]


E|------------------------------ 7|-------------- 7----------------|
B|----------10--------------10----|---------- 8------ 8------------|
G|-------- 9---------- 7----------|------11--------------11--------|
D|----10---------- 9--------------|-- 9---------------------- 9----|
A| 8------------------------------|--------------------------------|
E|------------------------------ 0|------------------------------ 0|

E|--------------12--10-- 7------ 7|----------10-------------- 7----|
B|-------------------------- 8-- 8|------ 8------10------10--------|
G|------------ 0---------------- 9|-- 9-------------- 9------------|
D|-------- 4----------------------|--------------------------------|
A|---- 2------------------------ 0|--------------------------------|
E|--------------------------------|--------------------------------|

E|------------ 7 7-------------- 7|-------------- 7----------------|
B|------10--------------10-- 8----|---------- 8------ 8------------|
G|-- 9----------------------------|------11--------------11--------|
D|--------------------------------|-- 9---------------------- 9----|
A| 0------------------------------|--------------------------------|
E|------------------------------ 0|------------------------------ 0|

E|--------------12--10-- 7------ 7|----------10---------------- 7--|
B|-------------------------- 8-- 8|------ 8----1010--------10------|
G|------------ 0------------------|---- 9-------------- 9----------|
D|-------- 4----------------------|--------------------------------|
A|---- 2--------------------------|--------------------------------|
E|------------------------------ 8|--------------------------------|

E|--------------12--10------------| 7-------- 7-- 7-------------- 5|
B|---------- 8----------12-- 8----|--------------------------10-- 5|
G|------ 9---------------------- 9|------ 9-------------- 9--------|
D|----10--------------------------|----10------------10------------|
A|------------------------------ 8|------------------------------ 8|
E| 8------------------------------|--------------------------------|

E|---------- 5-------------- 0----| 0------------------------------|
B|-------------- 8---- 7----------|-------------- 0----------------|
G|-- 5------------------------ 7--|------------ 0---- 0------------|
D|-------- 7----------------------|-------- 4------------ 4--------|
A|--------------------------------|---- 2-------------------- 2----|
E|--------------------------------| 0---------------------------- 0|

E|--------------------------------|--------------------------------|
B|-------------- 0------------ 3 3|---- 0 0------------------ 0----|
G|---------- 0-------- 0-------- 0|---- 0 0-- 2-- 2---- 0 0--------|
D|------ 4---------------- 4---- 0|---- 0 0-------- 0------------ 2|
A|-- 2----------------------------|--------------------------------|
E|--------------------------------| 3-------------- 3--------------|

E|--------------------------------|--------------------------------|
B|---------------- 0-------- 3----| 3 0-- 0------------------ 0----|
G|---- 0------ 0---- 0---------- 2|-- 2-- 2-- 2---- 2 0-- 0--------|
D|-------- 0-------------- 0---- 3|---------------- 3 3---------- 2|
A|--------------------------------|--------------------------------|
E| 3---------------------------- 1|---------------- 1------------ 1|

E|--------------------------------|--------------------------------|
B|-------------- 0---------- 3-- 3|-- 0------ 0---------- 0------ 0|
G|-- 0-------- 0---- 0---------- 0|------ 2---------- 0------ 2 0 0|
D|-------- 0------------ 0------ 0|-------------- 0----------------|
A|--------------------------------|--------------------------------|
E|------------------------------ 0|--------------------------------|

E|------------------------------ 0|--------------------------------|
B|-------------- 0-------------- 3|---------- 3-------------- 3----|
G|------ 0-- 2 0 0-------------- 5|------ 5-------------- 5--------|
D|-- 0-------------- 0-- 2-- 0----|---- 5------------ 5------------|
A|------------------------------ 5|------------------------------ 5|
E| 0------------ 0----------------|--------------------------------|

E|------------------------------12|----------10--------------121012|
B|---------- 3------------------12|------12--------------12------12|
G|------ 5---------- 5------ 5--11|--11--------------11------------|
D|-- 5------------------ 5--------|--------------------------------|
A|------------------------------10|--------------10--------------10|
E|--------------------------------|--------------------------------|

E|10---------------------------- 1|-- 0------ 0--------------------|
B|------12------121312--10------ 1|-- 1-- 3-- 1------ 1-- 1--------|
G|----------11--11----------12-- 2|-- 2-- 2-- 2------ 2-- 2--------|
D|--------------------------------|------ 3---------- 3-- 3-- 3----|
A|--------------10----------------|--------------------------------|
E|------------------------------ 1|-------------- 1-------------- 1|

E|--------------------------------|17----------171514--------------|
B|---------- 1--------------------| 0------ 0-------- 015-------- 8|
G|------ 2---------------- 2------|---- 0----------------14------ 7|
D|-- 3-------------- 3-------- 3--|------------------------------ 7|
A|--------------------------------|--------------------------------|
E|-------------- 1----------------| 0-------------- 0------------ 0|

E|------------------------------ 7|-- 5----------------------------|
B|-- 7-------------------------- 5|---- 8 7-- 5 7 3----------------|
G|---- 7------------------------ 5|-- 5 5---- 5 5-- 2---- 2--------|
D|------ 7------ 5 4 5 7 5--------|------ 5-- 5 5------ 4------ 4--|
A|------------------------------ 5|---------------- 5--------------|
E|-------------- 0----------------|--------------------------------|

E|------------------------------ 7|-------------- 7----------------|
B|------------ 3------------10----|---------- 8------ 8------------|
G|-------- 2---------- 7----------|------11--------------11--------|
D|---- 4-------- 9----------------|-- 9---------------------- 9----|
A| 5------------------------------|--------------------------------|
E|--------------10-------------- 0|------------------------------ 0|

E|--------------12--10-- 7------ 7|----------10--------------------|
B|-------------------------- 8----|--------------10----------------|
G|------------ 0---------------- 9|-------- 9-------- 9------ 9----|
D|-------- 4----------------------|----10----------------10--------|
A|---- 2--------------------------| 8------------------------------|
E|--------------------------------|--------------------------------|

E|------------------------------ 7|-------------- 7----------------|
B|----------10--------------10----|---------- 8------ 8------------|
G|-------- 9---------- 7----------|------11--------------11--------|
D|----10---------- 9--------------|-- 9---------------------- 9----|
A| 8------------------------------|--------------------------------|
E|------------------------------ 0|------------------------------ 0|

E|--------------12--10-- 7------ 7|----------10-------------- 7----|
B|-------------------------- 8-- 8|------ 8------10------10--------|
G|------------ 0---------------- 9|-- 9-------------- 9------------|
D|-------- 4----------------------|--------------------------------|
A|---- 2------------------------ 0|--------------------------------|
E|--------------------------------|--------------------------------|

E|------------ 7 7-------------- 7|-------------- 7----------------|
B|------10--------------10-- 8----|---------- 8------ 8------------|
G|-- 9----------------------------|------11--------------11--------|
D|--------------------------------|-- 9---------------------- 9----|
A| 0------------------------------|--------------------------------|
E|------------------------------ 0|------------------------------ 0|

E|--------------12--10-- 7------ 7|----------10---------------- 7--|
B|-------------------------- 8-- 8|------ 8----1010--------10------|
G|------------ 0------------------|---- 9-------------- 9----------|
D|-------- 4----------------------|--------------------------------|
A|---- 2--------------------------|--------------------------------|
E|------------------------------ 8|--------------------------------|

E|--------------12--10------------| 7-------- 7-- 7-------------- 5|
B|---------- 8----------12-- 8----|--------------------------10-- 5|
G|------ 9---------------------- 9|------ 9-------------- 9--------|
D|----10--------------------------|----10------------10------------|
A|------------------------------ 8|------------------------------ 8|
E| 8------------------------------|--------------------------------|

E|---------- 5-------------- 0----| 0------------------------------|
B|-------------- 8---- 7----------|-------------- 0----------------|
G|-- 5------------------------ 7--|------------ 0---- 0------------|
D|-------- 7----------------------|-------- 4------------ 4--------|
A|--------------------------------|---- 2-------------------- 2----|
E|--------------------------------| 0---------------------------- 0|

E|--------------------------------| 7------------------------------|
B|--------------------------10----| 8------------------------------|
G|---------- 0-------- 7--------11|--------------------------------|
D|-------- 4---- 9----------------|--------------------------------|
A|-- 2----------------------------|--------------------------------|
E|------------------------------ 0|--------------------------------|



            
            
Suggest correction
Creating personal tab
Creating personal tab
You can edit any tab online and save it as your Personal.

You can edit, replace or remove any tab part or add personal notes – all changes will be seen only by you.

Personal tabs can be accessed anytime from any device, even offline.
Learn more »
Give kudos to tab author, rate the tab!
1 2 3 4 5
comments
print report bad tab
guest
You may want to rate the tab now too:
select rating
Wanna post a correction for this tab? Suggest correction