Oops, an error
Loading. Please wait.

Ladies Nite In Buffalo tab

2,785 views 9 this week
no commentswrite comment
1 2 3 4 5
2 more votes to show rating
add to favorites
×
Save as Personal and add changes to this tab that will be seen only by you. Learn more ›
×
You can save this tab as Personal to edit and correct it or add notes. All changes will be seen only by you. Learn more »
launch autoscroll
font size
0
reset
how to read this tab
guitar tuner
backing track
0:00
0:00
edit
Autoscroll
slow
fast
+/-
esc
set tempo
stop
Author
Tabbers playing skills
intermediate
[Back off on the volume a bit to get a nice, clean tone]
Intro
  Q=113
 4/4
  Gtr I
                           \3
  W          +W           +H.      Q    W
|-5--------|-(5)--------|-(5)---------|------|
|-6--------|-(6)--------|-(6)---------|------|
|-5--------|-(5)--------|-(5)---------|------|
|----------|------------|-------------|------|
|-5--------|-(5)--------|-(5)---------|------|
|----------|------------|-------------|------|


                 PM|   PM--|
    E E E E  E.S S S S S   E E E E E S S S S  E  4x
||-----------------------|-----------8-8-8-8\----||
||o-----6----------------|-----6----------------o||
||------5----------------|-----5-----5-5-5-5\----||
||-----------------------|-----------------------||
||o---------/5p3---------|----------------------o||
||--5------------5-5---3-|-5---------------------||


 Verse 1
                        ~~~ PM|   PM--|
  Wx2          E E E E  E.S S S S S   E E E E  S  S     +S   S  S  E.
|------------|----------------------|------------------------------------|
|------------|-----6----------------|-----6------------------------------|
|------------|-----5----------------|-----5---12-12b14r(12)p10h12p10b12==|
|------------|----------------------|------------------------------------|
|------------|---------/5p3---------|------------------------------------|
|------------|-5------------5-5---3-|-5----------------------------------|


                                           PM|   PM--|
   +W            +W           E E E E  E.S S S S S   E E E E  S  S  E  S  E.
|-------------|-------------|----------------------|--------------------------|
|-------------|-------------|-----6----------------|-----6--------------------|
|-(12)--------|-(12)--------|-----5----------------|-----5---12p10----10------|
|-------------|-------------|----------------------|---------------12----12---|
|-------------|-------------|---------/5p3---------|--------------------------|
|-------------|-------------|-5------------5-5---3-|-5------------------------|


   Bridge
                                 |-3--|
    E. S E E H      E. S E  S  S S  S S  E S  S  E   E. S E E  S E S Q
||----------------|--------------------------------|----------11p8---8\--|
||o-8--8-8--------|-8--8-8-------8-----------------|-4--4-4----8-----8\--|
||--7--7-7--------|-7--7-7-------8---------8-------|-3--3-3----------8\--|
||--8--8-8--------|-8--8-8-------8h10p8----8-------|-5--5-5--------------|
||o-6--6-6--------|-6--6-6-10-10--------10---10\---|-3--3-3--------------|
||----------------|--------------------------------|---------------8-----|
|-Rhy Gig 1

  1.             2.
  |-3-| |-3-|      |-3-|
  Q Q Q Q Q Q      Q Q Q H
|-------3------||-------------|
|---------3---o||--------6----|
|---5-------5--||----5---6----|
|-----5--------||------5-5----|
|-------------o||-------------|
|-5------------||--5-----5----|
                end Rhy Fig 1-|

   Chorus
      E.  S  E  E S  S S S  E E   S E S E E  E S S E E
||--/15--15-15-13-8s10-x-x-10---|-----------/5---------|
||o-----------------------------|-6s8-8-8-6-/5---------|
||--/12--12-12-10-5s=7------7---|-5s7-7-7-5----x-x-7---|
||------------------------------|--------------x-x-7---|
||o-----------------------------|----------------------|
||------------------------------|----------------------|
|-Rhy Fig 2

    E.  S  E  E S  S S S  E E   S E S E E  E S S E E
|-/15--15-15-13-8s10-x-x------|-----------/5----------||
|------------------------10---|-6s8-8-8-6-/5---------o||
|-/12--12-12-10-5s=7----------|-5s7-7-7-5----x-x------||
|-------------------------7---|--------------x-x-7----||
|-----------------------------|------------------7---o||
|-----------------------------|-----------------------||
                                         end Rhy Fig 2-|
                                         includes repeat
 Verse 2
                                       PM|   PM-
  W          +W           E E E E  E.S S S S S
|----------|------------|----------------------|
|----------|------------|-----6----------------|
|----------|------------|-----5----------------|
|----------|------------|----------------------|
|-5--------|-(5)--------|---------/5p3---------|
|----------|------------|-5------------5-5---3-|


 -|
  E E E E  S     +S   S  S  S  S E
|-----------------------------------|
|-----6---13------------------------|
|-----5---12b14r(12)p10----10h12----|
|-----------------------12----------|
|-----------------------------------|
|-5---------------------------------|


                    ~~~~~~~~~~~~~~~
   a      +S   +E.  H.         +W
|---------------------------|-------------|
|---------------------------|-------------|
|-10b12==(12)r(10)-10-------|-(10)--------|
|---------------------------|-------------|
|---------------------------|-------------|
|---------------------------|-------------|


               PM|   PM--|
                                  |------6-------|
  E E E E  E.S S S S S   E E E E  S  S  S  S  S  S  Q
|----------------------|---------13-10----10-------------|
|-----6----------------|-----6---------13----13-10-13----|
|-----5----------------|-----5---------------------------|
|----------------------|---------------------------------|
|---------/5p3---------|---------------------------------|
|-5------------5-5---3-|-5-------------------------------|


   Bridge
   Rhy Fig 1


   Chorus
   Rhy Fig 2 w/repeat

  Interlude
   \3
  H.      Q    Wx3
|------------|--------|
|------------|--------|
|-7----------|--------|
|-7----------|--------|
|-5----------|--------|
|-5----------|--------|


    E E Q  E S S +E  E   E E Q  H      E E Q  E S S +E  E   E E Q  H
||---------------------|-------------|--------------------|--------------||
||o--------------------|-------------|--------------------|-------------o||
||---------------------|-------------|--------------------|--------------||
||---------------------|-------------|--------------------|--------------||
||o-5------------------|-5-----------|-5------------------|-5-----------o||
||---------1---3-(3)-1-|-------------|--------1---0-(0)-1-|--------------||


 Guitar Solo
 4/4
                          |-----------3-----------|
   a      +H      a      +Q   a      +Q   a      +Q
|-20b22==(22)----20b22==(22)-20b22==(22)-20b22==(22)\-|
|-----------------------------------------------------|
|-----------------------------------------------------|
|-----------------------------------------------------|
|-----------------------------------------------------|
|-----------------------------------------------------|


                      /               \1.5___________
            ~~
                           |--3---|   |-----3-----|
    E.   S  H      E  E    Q  Q   Q   Q      +Q   Q
|-----------------------|-----------/15-----(15)-13-|
|------/15-15----/13h15-|-17p13---------------------|
|-/14-------------------|-------h14-----------------|
|-----------------------|---------------------------|
|-----------------------|---------------------------|
|-----------------------|---------------------------|


                              PM|
    E. S  S  S  E  Q.    +S   T  T    S  E  S  S  E  S  S E S S E.
|----------------------------------|-20s15----15s12----12s8---8p5--|
|-------------------------------18-|-------13-------10------6------|
|-/14p12p10------------------17----|-------------------------------|
|-----------12h14p10----(10)-------|-------------------------------|
|----------------------------------|-------------------------------|
|----------------------------------|-------------------------------|


                                      ~
        |-3-| |----6----| |----6----|
  S T T S S S S S S S S S S S S S S S Q
|-8p6p5----------------------------------|
|-------8p6p5----------------------------|
|-------------7p5p3----------------------|
|-------------------7p5p3----------------|
|-------------------------7p5p3----------|
|-------------------------------3h5p3h5--|


                           \1____________
  |-3--| |-3-|    |--3--|
  Q  Q Q Q Q Q    Q  Q  Q  E    +E   Q
|------------8-|----10----12---(12)-----|
|--------8-----|-10-----------------10--|
|------5---7---|-------10---------------|
|---/7---------|------------------------|
|-8------------|------------------------|
|--------------|------------------------|


   |------6-------|  |------6-------|  |------6-------|  |--3--|
   S  S  S  S  S  S  S  S  S  S  S  S  S  S  S  S  S  S  S  S  S  E
|-15p12----------12h15p12----------12h13p12----------12h15p12----------|
|-------13p12h13----------13p12h13----------13p12h13----------13p12/---|
|----------------------------------------------------------------------|
|----------------------------------------------------------------------|
|----------------------------------------------------------------------|
|----------------------------------------------------------------------|


                                               ~~~~~~~~~
   |------6-------|  |------6-------|
   S  S  S  S  S  S  S  S  S  S  S  S  a      +Q.  +S    S
|-20p17----------17h20p17----------17-------------------17-|
|-------18p17h18----------18p17h18----20b22==(22)-(22)r----|
|----------------------------------------------------------|
|----------------------------------------------------------|
|----------------------------------------------------------|
|----------------------------------------------------------|


   |------6-------|  |------6-------|  |------6-------|  |------6-------|
   S  S  S  S  S  S  S  S  S  S  S  S  S  S  S  S  S  S  S  S  S  S  S  S
|-20p17p15-17p15p13-------------------------------------------------------|
|-------------------------------------------------------------------------|
|-------------------17p15p14-15p14p12-------------------------------------|
|-------------------------------------15p14p12-14p12p10-------------------|
|-------------------------------------------------------15p13p12-13p12p10-|
|-------------------------------------------------------------------------|


   TP TP TP TP TP TP TP TP TP TP TP TP TP TP TP TP TP TP TP TP TP TP TP TP
   |------6-------|  |------6-------|  |------6-------|  |------6-------|
   S  S  S  S  S  S  S  S  S  S  S  S  S  S  S  S  S  S  S  S  S  S  S  S
|-------------------------------------------------------13-13-13-17-17-17-|
|----------------------------------------------13-13-13-------------------|
|-------------------------------------14-14-14----------------------------|
|-------------------12-12-12-15-15-15-------------------------------------|
|-12-12-12-15-15-15-------------------------------------------------------|
|-------------------------------------------------------------------------|


                          |-----------3-----------|
   a      +H      a      +Q   a      +Q   a      +Q
|-20b22==(22)----20b22==(22)-20b22==(22)-20b22==(22)\-|
|-----------------------------------------------------|
|-----------------------------------------------------|
|-----------------------------------------------------|
|-----------------------------------------------------|
|-----------------------------------------------------|


   a      +H      a      +E.  a      +S   +E   E
|-20b22==(22)----20b22==(22)-20b22==(22)r(20)-17-|
|------------------------------------------------|
|------------------------------------------------|
|------------------------------------------------|
|------------------------------------------------|
|------------------------------------------------|


           ~~~~                                        ~~
   a      +H      a      +E.  a      +S   +E   E    a  H     Q.   E
|-20b23==(23)----22b25==(25)-22b25==(25)r(22)-17-|-25s27----27\-----||
|------------------------------------------------|------------------||
|------------------------------------------------|------------------||
|------------------------------------------------|------------------||
|------------------------------------------------|------------------||
|------------------------------------------------|------------------||


                      ~~~~
    Q.    E  H       +H      E  E  E  E
|-----------------|---------------------|
|-----------------|---------------------|
|-/12-------------|---------------------|
|--------10-10----|-(10)----10-12-13-10-|
|-----------------|---------------------|
|-----------------|---------------------|


   ~~                                     ~~~~
   W           S      +S   +S       +S   +H.
|-----------|-----------------------------------|
|-----------|-----------------------------------|
|-12--------|-----------------------------------|
|-----------|-12b13==(13)r(12)b13==(13)r(12)----|
|-----------|-----------------------------------|
|-----------|-----------------------------------|


    ~~~~               ~~~~
    Q.    E   H       +H       E  E  E  E
|------------------|----------------------|
|------------------|----------------------|
|-/15--------------|-------------14-15----|
|--------17-/17----|-(17)----/17-------17-|
|------------------|----------------------|
|------------------|----------------------|


           ~~~~                ~~~~
   a      +W            a      W
|--------------------|--------13-----||
|--------------------|-16b18-(18)----||
|-17b19==(19)--------|---------------||
|--------------------|---------------||
|--------------------|---------------||
|--------------------|---------------||


   Outro
   Rhy Fig 2 repeat and fade

            
            
Suggest correction
Creating personal tab
Creating personal tab
You can edit any tab online and save it as your Personal.

You can edit, replace or remove any tab part or add personal notes – all changes will be seen only by you.

Personal tabs can be accessed anytime from any device, even offline.
Learn more »
Give kudos to tab author, rate the tab!
1 2 3 4 5
comments
print report bad tab
guest
You may want to rate the tab now too:
select rating
Wanna post a correction for this tab? Suggest correction