Oops, an error
Loading. Please wait.

Lucks In bass

412 views 1 this week
no commentswrite comment
1 2 3 4 5
3 more votes to show rating
add to favorites
×
Save as Personal and add changes to this tab that will be seen only by you. Learn more ›
×
You can save this tab as Personal to edit and correct it or add notes. All changes will be seen only by you. Learn more »
launch autoscroll
font size
0
reset
guitar tuner
edit
Autoscroll
slow
fast
+/-
esc
set tempo
stop
Author
-------------------------------------------------------------------------------
			     Lucks In - Steve Winwood
-------------------------------------------------------------------------------

Tabbed By : Jamie G
e-mail: jamie__@hotmail.co.uk

Tuning: Normal

Intro - Slide from 7th fret played the first time only

G|------------------------------------------------------------------------------|
D|--------------2--------0----------------------2-------0-----------------------|
A|--7\--0--3--------0--------2---------0----3-------0------3-2------------------|
E|--------------------------------3------------------------------3--------------|

Verse: This is the basic pattern, there are a few weird notes at the start that don't occur again

G|------------------------------------------------------------------------------|
D|------------------------------------------------------------------------------|
A|--0----3-h-5------------------------1-h-3-----------------------1-h-3-etc-----|
E|-----------------1--2--3--1----3--------------1--2--3--1---3------------------|

Chorus: Fills might not be 100% right but the main root notes are F and G, it goes something like:

G|------------------------------------------------------------------------------|
D|--------------------------3-----------------------3---------------------------|
A|--3---------------------------1--1--3-----------------------------------------|
E|------3--3--2--1-----1-1----------------1----1-1------1--1--2-----------------|

G|------------------------------------------------------------------------------|
D|--------------5--------------------------5------------------------------------|
A|------------------3--4--5-----------------------------------------------------|
E|--3----3-3-------------------3----3-3--------3--3--2--------------------------|

G|------------------------------------------------------------------3-----------|
D|---------------3--------------------------3-----------------------------------|
A|-------------------1---1---3----------------------------1--1-1----------------|
E|--1-----1-1--------------------1----1-1--------1--1--1------------------------|

G|-----------------------------------------------------------------------------|
D|--1--1--2--3--3------5-------------------------------------------------------|
A|-----------------------------------------------------------------------------|
E|-----------------------------------------------------------------------------|

And that's all the riffs there are! This was my first tab, I hope someone other than me 
to learn this song on bass one day!

| /  slide up
| \  slide down
| h  hammer-on
| p  pull-off
| ~  vibrato
| +  harmonic
| x  Mute note
===============================================================================

            
            
Suggest correction
Creating personal tab
Creating personal tab
You can edit any tab online and save it as your Personal.

You can edit, replace or remove any tab part or add personal notes – all changes will be seen only by you.

Personal tabs can be accessed anytime from any device, even offline.
Learn more »
Give kudos to tab author, rate the tab!
1 2 3 4 5
comments
print report bad tab
guest
You may want to rate the tab now too:
select rating
Wanna post a correction for this tab? Suggest correction