Oops, an error
Loading. Please wait.

I Will Be Here tab

version 1
version 1

Whole song

Interactive

75,529 views 225 this week
2 commentsread comments
1 2 3 4 5
x 15
add to favorites
×
Save as Personal and add changes to this tab that will be seen only by you. Learn more ›
×
You can save this tab as Personal to edit and correct it or add notes. All changes will be seen only by you. Learn more »
launch autoscroll
font size
0
reset
how to read this tab
guitar tuner
edit
Autoscroll
slow
fast
+/-
esc
set tempo
stop
Capo 1st Fret

  Dadd9              Gadd9(no3)          Dadd9               Gadd9(no3)
e|-------0----------|-----0-------------|-------0-----------|-----0-------------|
B|-----3-----3------|-------3-----------|-----3-----3-------|-------3-----------|
G|---2-----------2--|------------0------|---2-----------2---|-----------0-------|
D|-0-------0---0----|---0-----0---------|-0-------0---0-----|---0-----0---------|
A|------------------|-------------------|-------------------|-------------------|
E|------------------|-3-----------------|-------------------|-3-----------------|

  Dadd9              A7sus  A   D  D/C#  Bm7      F#m/A      Gadd9(no 3) D/F#
e|-------0----------|-------------------|-------------------|-------------------|
B|-----3-----3------|-3-2h3-------------|-------3-------2---|-------3-------3---|
G|---2-----------2--|-0---------2---2---|-----2-------2-----|-----0-------2-----|
D|-0-------0---0----|-2-------0---------|---4-------2-------|---0-------0-------|
A|------------------|-0-----------4-----|-2-------0---------|-------------------|
E|------------------|-------------------|-------------------|-3-------2---------|
Tomorrow morning if you wake up and the sun does not appear,

  Em7                A7sus      A7       Dadd9               Gadd9(no 3)
e|-----------0------|-------------------|-------0-----------|-----0-------------|
B|-------3----------|-3---3---2---------|-----3-----3-------|-------3-----------|
G|-----0---------0--|-0-0---0-0---0-----|---2-----------2---|-----------0-------|
D|---2---------2----|-----------2-------|-0-------0---0-----|---0-----0---------|
A|------------------|-0-------0---------|-------------------|-------------------|
E|-0-------0--------|-------------------|-------------------|-3-----------------|
I,                         I will be here

  Dadd9              A7sus  A   D  D/C#  Bm7      F#m/A      Gadd9(no 3) D/F#
e|-------0----------|-------------------|-------------------|-------------------|
B|-----3-----3------|-3-2s3-------------|-------3-------2---|-------3-------3---|
G|---2-----------2--|-0---------2---2---|-----2-------2-----|-----0-------2-----|
D|-0-------0---0----|-2-------0---------|---4-------2-------|---0-------0-------|
A|------------------|-0-----------4-----|-2-------0---------|-------------------|
E|------------------|-------------------|-------------------|-3-------2---------|
If in the dark we lose sight of love hold my hand and have no fear,     'cause

  Em7                A7sus     A7        Dadd9               D         A/C#
e|-----------0------|-------------------|-------0-----------|-0h2-2-------------|
B|-------3----------|-3---3---2---------|-----3-----3-------|-------3---2-------|
G|-----0---------0--|-0-0---0-0---0-----|---2-----------2---|-------------------|
D|---2---------2----|-----------2-------|-0-------0---0-----|-0-----------------|
A|------------------|-0-------0---------|-------------------|---------0---4-----|
E|-0-------0--------|-------------------|-------------------|-------------------|
I,                         I will be here                        I will be here

  Bm7       /A       D/E       E7        A         /G        Dmaj7/F#
e|-------2----------|-------0-----------|-------------------|-------2-----------|
B|-----------3------|-----------0-------|-------2-------2---|-----------2-------|
G|---4-----------4--|---2-----------1---|-----2-------2-----|---2-----------2---|
D|-----4-------4----|-----0-------0-----|---2-------2-------|-----0-------0-----|
A|-2-------0--------|-------------------|-0-----------------|-------------------|
E|------------------|-0-------0---------|---------3---------|-2-------2---------|
           when you feel like being quiet,          when you need to speak your

  G        D/F#      Em7       F#7(|5)   Bm        /A        D/E       E7
e|------------------|-------------------|-------2-----------|-------0-----------|
B|-------0-------3--|-------0-------2---|-----------3-------|-----------0-------|
G|-----0-------2----|---0-------3-------|---4-----------4---|---2-----------1---|
D|---0-------0------|-----2-------2-----|-----4-------4-----|-----0-------0-----|
A|------------------|-------------------|-2-------0---------|-------------------|
E|-3-------2--------|-0-------2---------|-------------------|-0-------0---------|
            I will listen,    and I will be here,when the laughter turns to cry-

  A        /G        Dmaj7/F#            G        D/F#       Em7
e|------------------|-------2-----------|-------------------|-----------0-------|
B|-------2-------2--|-----------2-------|-------0-------3---|-------3-----------|
G|-----2-------2----|---2-----------2---|-----0-------2-----|-----0---------0---|
D|---2-------2------|-----0-------0-----|---0-------0-------|---2---------2-----|
A|-0----------------|-------------------|-------------------|-------------------|
E|---------3--------|-2-------2---------|-3-------2---------|-0-------0---------|
 in',     through the winnin', losin', and tryin',  we'll be together,

  G6/A               Dadd9               Gadd9(no 3)         Dadd9
e|---------3--------|-------0-----------|-----0-------------|-------0-----------|
B|-------3----------|-----3-----3-------|-------3-----------|-----3-----3-------|
G|-----4------------|---2-----------2---|-----------0-------|---2-----------2---|
D|---5--------------|-0-------0---0-----|---0-----0---------|-0-------0---0-----|
A|-0----------------|-------------------|-------------------|-------------------|
E|------------------|-------------------|-3-----------------|-------------------|
        'cause I will be here.

  Gadd9(no 3)        Dadd9               A7sus   A   D  /C#  Bm7       F#m/A
e|-----0------------|-------0-----------|-------------------|-------------------|
B|-------3----------|-----3-----3-------|-3-2s3-------------|-------3-------2---|
G|-----------0------|---2-----------2---|-0----------2---2--|-----2-------2-----|
D|---0-----0--------|-0-------0---0-----|-2--------0--------|---4-------2-------|
A|------------------|-------------------|-0------------4----|-2-------0---------|
E|-3----------------|-------------------|-------------------|-------------------|
                   Tommorow mornin' if  you wake up and the future is unclear,

  Gadd9(no 3) D/F#   Em7                 A7sus      A7       Dadd9
e|------------------|-----------0-------|-------------------|-------0-----------|
B|-------3-------3--|-------3-----------|-3---3---2---------|-----3-----3-------|
G|-----0-------2----|-----0---------0---|-0-0---0-0---0-----|---2-----------2---|
D|---0-------0------|---2---------2-----|-----------2-------|-0-------0---0-----|
A|------------------|-------------------|-0-------0---------|-------------------|
E|-3-------2--------|-0-------0---------|-------------------|-------------------|
                    I,                        I will be here.

  Gadd9(no 3)        Dadd9               A7sus   A   D  /C#  Bm7      F#m/A
e|-----0------------|-------0-----------|-------------------|-------------------|
B|-------3----------|-----3-----3-------|-3-2s3-------------|-------3-------2---|
G|-----------0------|---2-----------2---|-0---------2---2---|-----2-------2-----|
D|---0-----0--------|-0-------0---0-----|-2-------0---------|---4-------2-------|
A|------------------|-------------------|-0-----------4-----|-2-------0---------|
E|-3----------------|-------------------|-------------------|-------------------|
              As sure as seasons are made for change, our lifetimes are made for

  Gadd9(no 3)  D/F#  Em7                 A7sus      A7       Dadd9      D
e|------------------|-----------0-------|-------------------|-------0-----------|
B|-------3-------3--|-------3-----------|-3---3---2---------|-----3-----3-------|
G|-----0-------2----|-----0---------0---|-0-0---0-0---0-----|---2-----------2---|
D|---0-------0------|---2---------2-----|-----------2-------|-0-------0---0-----|
A|------------------|-------------------|-0-------0---------|-------------------|
E|-3-------2--------|-0-------0---------|-------------------|-------------------|
 years,             so I,                     I will be here.

  D        A/C#      Bm        /A        D/E       E7        A         /G
e|-0h2--2-----------|-------2-----------|-------0-----------|-------------------|
B|--------3---2-----|-----------3-------|-----------0-------|-------2--------2--|
G|------------------|---4-----------4---|---2-----------1---|-----2--------2----|
D|-0----------------|-----4-------4-----|-----0-------0-----|---2--------2------|
A|----------0---4---|-2-------0---------|-------------------|-0-----------------|
E|------------------|-------------------|-0-------0---------|----------3--------|
      I will be here,         and you can cry on my shoulder,     when the

  Dmaj7/F#           G        D/F#       Em7      F#7(|5)    Bm        /A
e|-------2----------|-------------------|-------------------|-------2-----------|
B|-----------2------|-------0-------3---|-------0--------2--|------------3------|
G|---2-----------2--|-----0-------2-----|---0--------3------|---4------------4--|
D|-----0-------0----|---0-------0-------|-----2--------2----|-----4--------4----|
A|------------------|-------------------|-------------------|-2--------0--------|
E|-2-------2--------|-3-------2---------|-0--------2--------|-------------------|
 mirror tells us we're older I will   hold you   and I will be here,        to

  D/E       E7       A        /G         Dmaj7/F#            G         D/F#
e|-------0----------|-------------------|-------2-----------|-------------------|
B|------------0-----|-------2--------2--|------------2------|-------0--------3--|
G|---2------------1-|-----2--------2----|---2------------2--|-----0--------2----|
D|-----0--------0---|---2--------2------|-----0--------0----|---0--------0------|
A|------------------|-0-----------------|-------------------|-------------------|
E|-0--------0-------|----------3--------|-2--------2--------|-3--------2--------|
 watch you grow in beauty and tell you all the things you are to me I will be

  Em7                G6/A      F#7/A#    Bm                  D/E      E7
e|------------0-----|-------------------|-------2-----------|-------------------|
B|-------3----------|-------3--------2--|------------3------|-------3--------0--|
G|-----0----------0-|-----4------3------|---4------------4--|---2--------1------|
D|---2----------2---|---5----------2----|-----4--------4----|-----0--------0----|
A|------------------|-0-----------------|-2--------2--------|-------------------|
E|-0--------0-------|----------2--------|-------------------|-0--------0--------|
 here                Hmmmmmmm               I   will    be  true  to the prom-

  A        /G        Dadd9/F#            Gadd9(no 3) D/F#    Em7
e|------------------|-------2-----------|-------------------|------------0------|
B|-------2--------2-|------------3------|-------3--------3--|-------3-----------|
G|-----2--------2---|---2------------2--|-----0--------2----|-----0----------0--|
D|---2--------2-----|-----0--------0----|---0--------0------|---2----------2----|
A|-0----------------|-------------------|-------------------|-------------------|
E|----------3-------|-2--------2--------|-3--------2--------|-0--------0--------|
 ise    I   have    made                to you and   to  the One who gave you

  G6/A               A7                  Em7  A7sus   A7     Dadd9
e|------------3-----|-------------------|-------------------|-------0-----------|
B|-------3----------|-2-----------------|-------3---3---2---|-----3------3------|
G|-----4----------4-|-0-----------------|-----0-----0---0---|---2------------2--|
D|---5----------5---|-------------------|---2---------------|-0--------0---0----|
A|-0--------0-------|-0-----------------|-----------0---0---|-------------------|
E|------------------|-------------------|-0-----------------|-------------------|
 to                 me.

  Asus   A   D  A/C# Bm7      F#m/A      Gadd9(no 3)  D/F#   Em7
e|------------------|-------------------|-------------------|------------0------|
B|-3-2s3------------|-------3--------2--|-------3--------3--|-------3-----------|
G|-0---------2---2--|-----2--------2----|-----0--------2----|-----0----------0--|
D|-2-------0--------|---4--------2------|---0--------0------|---2----------2----|
A|-0-----------4----|-2--------0--------|-------------------|-------------------|
E|------------------|-------------------|-3--------2--------|-0--------0--------|
                                                             I,

  A7sus    A7        Dadd9               Gadd9(no 3)         Dadd9
e|------------------|-------0-----------|-----0-------------|-------0-----------|
B|-3---3----2-------|-----3------3------|-------3-----------|-----3------3------|
G|-0-0---0--0---0---|---2------------2--|-----------0-------|---2------------2--|
D|-2----------2-----|-0--------0---0----|---0-----0---------|-0--------0---0----|
A|-0--------0-------|-------------------|-------------------|-------------------|
E|------------------|-------------------|-3-----------------|-------------------|
    I will be here.                            And just as sure as seasons are

  Asus   A   D  /F#  Bm7       F#/A      Gadd9(no 3)  D/F#   Em7
e|------------------|-------------------|-------------------|------------0------|
B|-3-2s3------------|-------3--------2--|-------3--------3--|-------3-----------|
G|-0--------2---2---|-----2--------2----|-----0--------2----|-----0----------0--|
D|-2------0---------|---4--------2------|---0--------0------|---2----------2----|
A|-0----------4-----|-2--------0--------|-------------------|-------------------|
E|------------------|-------------------|-3--------2--------|-0--------0--------|
 made for change,  our lifetimes are made for years,       so  I,

  G6/A      A7       Ao7                 Bm         /A       Em7
e|------------------|-------------------|-------2-----------|------------0------|
B|-------3--------2-|-------2--------2--|------------3------|-------3-----------|
G|-----4--------0---|---0--------0------|---4------------4--|-----0----------0--|
D|---5--------2-----|-----2--------2----|-----4--------4----|---2----------2----|
A|-0--------0-------|-1--------1--------|-2--------0--------|-------------------|
E|------------------|-------------------|-------------------|-0--------0--------|
                          I will be here.            We'll be together.

  G6/A               A                   Dadd9               Gadd9(no 3)
e|------------3-----|-------------------|-------0-----------|-----0-------------|
B|-------3----------|-2-----------------|-----3------3------|-------3-----------|
G|-----4----------4-|-2-----------------|---2------------2--|-----------0-------|
D|---5----------5---|-------------------|-0--------0---0----|---0-----0---------|
A|-0--------0-------|-0-----------------|-------------------|-------------------|
E|------------------|-------------------|-------------------|-3-----------------|
                           I will be here.

  D/F#               A                   D
e|-------2----------|---------0---------|-0h2---------------|
B|------------3-----|-2---------3--2----|-3-----------------|
G|---2------------2-|-2------------2----|-2-----------------|
D|-----0--------0---|-------------------|-0-----------------|
A|------------------|-0-------0----0----|-------------------|
E|-2--------2-------|-------------------|-------------------|

************************************

| h  Hammer-on
| s  
Slide

************************************

            
            
Suggest correction
Creating personal tab
Creating personal tab
You can edit any tab online and save it as your Personal.

You can edit, replace or remove any tab part or add personal notes – all changes will be seen only by you.

Personal tabs can be accessed anytime from any device, even offline.
Learn more »
comments
print report bad tab
2 comments total.
+4 reply
pacificislander 40 Jul 17, 2004 08:00 PM

I love this song

+3 reply
HuGs_N_KiSsEs 10 Oct 12, 2008 04:07 PM

such a beautiful song

guest
Wanna post a correction for this tab? Suggest correction