Oops, an error
Loading. Please wait.

Hand Cannot Erase tab

version 3
version 3

Whole song

Interactive

685 views 1 this week
no commentswrite comment
1 2 3 4 5
2 more votes to show rating
add to favorites
×
Save as Personal and add changes to this tab that will be seen only by you. Learn more ›
×
You can save this tab as Personal to edit and correct it or add notes. All changes will be seen only by you. Learn more »
launch autoscroll
font size
0
reset
how to read this tab
guitar tuner
edit
Autoscroll
slow
fast
+/-
esc
set tempo
stop
Author
Difficulty
Hi guys,

There isn't a good acoustic tab for this song, so I decided to make one. I've left some room
for you to be creative, especially because this song gives you that room, but mainly because I 
think it is important for you to change things to your liking.
It's not a difficult tab, just listen to the song carefully while learning it, part for part. 
It can be (for some) tricky sometimes to play along, but just keep practicing! I've tabbed this 
listening to the album version, so use that one for reference.


- Read the legend below for better understanding of the tab -

---------------------------------------------------------------------------------------------------------

[Intro] 00:00 - 00:15

e|---------------------------------------------------------------------------|
B|-------------------------------------------4-------------------------------|
G|-----9---9-------6---6---6---6---6-------4---4-------9---9---9---9---9-----|
D|---7---7---7---6---6---6---6---6---6---6-------6---7---7---7---7---7---7---| x2
A|-0-----------4-----------------------------------0-------------------------|
E|-------------------------------------4-------------------------------------|
     1 3       1 3 4                   1 3 1 1

[Verse] 00:15 - 00:47

e|---------------------------------------------------------------------------|
B|-------------------------------------------4-------------------------------|
G|-----9---9-------6---6---6---6---6-------4---4-------9---9---9---9---9-----|
D|---7---7---7---6---6---6---6---6---6---6-------6---7---7---7---7---7---7---| x4
A|-0-----------4-----------------------------------0-------------------------|
E|-------------------------------------4-------------------------------------|

[Bridge] 00:47 - 01:02

   G#m         A                       E           G#m
e|---------------------------------------------------------------------------|
B|-------4-----------5-----------------------0-----------4-------------------|
G|-----4---4-------6---6-------------------1---1-------4---4-----------------|
D|---6-------6---7-------7---7---7---7---2-------2---6-------6---6---6---6---| x2
A|---------------------------------------------------------------------------|
E|-4-----------5-----------5---5---5---0-----------4-----------4---4---4-----|


[Chorus] 01:02 - 01:18

PM--------------------------------------------------------------------------|
   A           C#m                     B           A
e|---------------------------------------------------------------------------|
B|---------------------------------------------------------------------------|
G|-------------6-6-6-6-6-6-6-6-6-6-6-6-4-4-4-4-4-4---------------------------|
D|-7-7-7-7-7-7-6-6-6-6-6-6-6-6-6-6-6-6-4-4-4-4-4-4-7-7-7-7-7-7-7-7-7-7-7-7-7-| x2
A|-7-7-7-7-7-7-4-4-4-4-4-4-4-4-4-4-4-4-2-2-2-2-2-2-7-7-7-7-7-7-7-7-7-7-7-7-7-|
E|-5-5-5-5-5-5-------------------------------------5-5-5-5-5-5-5-5-5-5-5-5-5-|
   *     *     *     *     *   *   * * *     *     *     *     *   *   * * *

[Instrumental part] 01:18 - 01:33
                   
   G#m      A     -soft-harder- E        G#m   -soft-harder-
e|-4--4-x-x-5------5-5-5-5-5-5--0--0-x-x-4------4-4-4-4-4-4------------------|
B|-4--4-x-x-5------5-5-5-5-5-5--0--0-x-x-4------4-4-4-4-4-4------------------|
G|-4--4-x-x-6------6-6-6-6-6-6--1--1-x-x-4------4-4-4-4-4-4------------------|
D|-6--6-x-x-7------7-7-7-7-7-7--2--2-x-x-6------6-6-6-6-6-6------------------| x2
A|-6--6-x-x-7------7-7-7-7-7-7--2--2-x-x-6------6-6-6-6-6-6------------------|
E|-4--4-x-x-5------5-5-5-5-5-5--0--0-x-x-4------4-4-4-4-4-4------------------|
   D  U D U D      D U D U D U  D  U D U D      D U D U D U


[Verse 2] 01:33 - 01:48

You can play this the same way as Verse 1, but you might also just want to continue with the strumming 
overlapping the chorus and instrumental part from before. That's completely up to you.

e|---------------------------------------------------------------------------|
B|-------------------------------------------4-------------------------------|
G|-----9---9-------6---6---6---6---6-------4---4-------9---9---9---9---9-----|
D|---7---7---7---6---6---6---6---6---6---6-------6---7---7---7---7---7---7---| x2
A|-0-----------4-----------------------------------0-------------------------|
E|-------------------------------------4-------------------------------------|

or

PM--------------------------------------------------------------------------|
   A           C#m                     B           A
e|---------------------------------------------------------------------------|
B|---------------------------------------------------------------------------|
G|-------------6-6-6-6-6-6-6-6-6-6-6-6-4-4-4-4-4-4---------------------------|
D|-7-7-7-7-7-7-6-6-6-6-6-6-6-6-6-6-6-6-4-4-4-4-4-4-7-7-7-7-7-7-7-7-7-7-7-7-7-| x 2
A|-7-7-7-7-7-7-4-4-4-4-4-4-4-4-4-4-4-4-2-2-2-2-2-2-7-7-7-7-7-7-7-7-7-7-7-7-7-|
E|-5-5-5-5-5-5-------------------------------------5-5-5-5-5-5-5-5-5-5-5-5-5-|
   *     *     *     *     *   *   * * *     *     *     *     *   *   * * *

[Bridge] 01:49 - 02:05

Depending how you chose to play Verse 2, chose the same continuation here. 

   G#m         A                       E           G#m
e|---------------------------------------------------------------------------|
B|-------4-----------5-----------------------0-----------4-------------------|
G|-----4---4-------6---6-------------------1---1-------4---4-----------------|
D|---6-------6---7-------7---7---7---7---2-------2---6-------6---6---6---6---| x2
A|---------------------------------------------------------------------------|
E|-4-----------5-----------5---5---5---0-----------4-----------4---4---4-----|

or

PM--------------------------------------------------------------------------|
   G#m         A                       E           G#m
e|---------------------------------------------------------------------------|
B|---------------------------------------------------------------------------|
G|---------------------------------------------------------------------------|
D|-6-6-6-6-6-6-7-7-7-7-7-7-7-7-7-7-7-7-1-1-1-1-1-1-6-6-6-6-6-6-6-6-6-6-6-6-6-| x 2
A|-6-6-6-6-6-6-7-7-7-7-7-7-7-7-7-7-7-7-2-2-2-2-2-2-6-6-6-6-6-6-6-6-6-6-6-6-6-|
E|-4-4-4-4-4-4-5-5-5-5-5-5-5-5-5-5-5-5-0-0-0-0-0-0-4-4-4-4-4-4-4-4-4-4-4-4-4-|
   *     *     *     *     *   *   * * *     *     *     *     *   *   * * *

[Chorus] 02:05 - 02:20

PM--------------------------------------------------------------------------|
   A           C#m                     B           A
e|---------------------------------------------------------------------------|
B|---------------------------------------------------------------------------|
G|-------------6-6-6-6-6-6-6-6-6-6-6-6-4-4-4-4-4-4---------------------------|
D|-7-7-7-7-7-7-6-6-6-6-6-6-6-6-6-6-6-6-4-4-4-4-4-4-7-7-7-7-7-7-7-7-7-7-7-7-7-| x2
A|-7-7-7-7-7-7-4-4-4-4-4-4-4-4-4-4-4-4-2-2-2-2-2-2-7-7-7-7-7-7-7-7-7-7-7-7-7-|
E|-5-5-5-5-5-5-------------------------------------5-5-5-5-5-5-5-5-5-5-5-5-5-|
   *     *     *     *     *   *   * * *     *     *     *     *   *   * * *

[Instrumental part] 02:20 - 02:35
 
   G#m      A     -soft-harder- E        G#m   -soft-harder-
e|-4--4-x-x-5------5-5-5-5-5-5--0--0-x-x-4------4-4-4-4-4-4------------------|
B|-4--4-x-x-5------5-5-5-5-5-5--0--0-x-x-4------4-4-4-4-4-4------------------|
G|-4--4-x-x-6------6-6-6-6-6-6--1--1-x-x-4------4-4-4-4-4-4------------------|
D|-6--6-x-x-7------7-7-7-7-7-7--2--2-x-x-6------6-6-6-6-6-6------------------| x2
A|-6--6-x-x-7------7-7-7-7-7-7--2--2-x-x-6------6-6-6-6-6-6------------------|
E|-4--4-x-x-5------5-5-5-5-5-5--0--0-x-x-4------4-4-4-4-4-4------------------|
   D  U D U D      D U D U D U  D  U D U D      D U D U D U

[Instrumental with solo] 02:35 - 03:03

Guitar 1
e|-5--5-x-x-4------4-4-x-x--2---2-x-x-2------2-2-x-x-------------------------|
B|-5--5-x-x-5------5-5-x-x--4---4-x-x-4------4-4-x-x-------------------------|
G|-6--6-x-x-6------6-6-x-x--4---4-x-x-4------4-4-x-x-------------------------|
D|-7--7-x-x-6------6-6-x-x--4---4-x-x-4------4-4-x-x-------------------------| x4
A|-7--7-x-x-4------4-4-x-x--2---2-x-x-2------2-2-x-x-------------------------|
E|-5--5-x-x------------------------------------------------------------------|
   D  U D U D      D U D U  D   U D U D      D U D U

Guitar 2

The solo begins after two repetitions of the "Guitar 1" part.
I've tabbed two different ways to play this solo, I prefer the first one, sounds much better in my 
opinion.

e|--------------------------------------------------------------------------------|
B|--------------------------------------------------------------------------------|
G|-9-/14--13~---13h14p13\9-11~-9--8~-8h9p8\4-6-/14-13~-13h14p13\9--11~-/16-16~--16|
D|--------------------------------------------------------------------------------|
A|--------------------------------------------------------------------------------|
E|--------------------------------------------------------------------------------|

or

e|---------------------------------------------------------------------------|
B|----10-9~-9h10p9----------------------------10-9~-9h10p9------12-12~---12--|
G|-9---------------9--11~-9--8---8h9p8---------------------9-11--------------|
D|-------------------------------------9---11~-------------------------------|
A|---------------------------------------------------------------------------|
E|---------------------------------------------------------------------------|

[Instrumental after solo] 03:03 - 03:19

e|---------------------------------------------------------------------------|
B|-------------------------------------------4-------------------------------|
G|-----9---9-------6---6---6---6---6-------4---4-------9---9---9---9---9-----|
D|---7---7---7---6---6---6---6---6---6---6-------6---7---7---7---7---7---7---| x2
A|-0-----------4-----------------------------------0-------------------------|
E|-------------------------------------4-------------------------------------|

[Chorus]

PM--------------------------------------------------------------------------|
   A           C#m                     B           A
e|---------------------------------------------------------------------------|
B|---------------------------------------------------------------------------|
G|-------------6-6-6-6-6-6-6-6-6-6-6-6-4-4-4-4-4-4---------------------------|
D|-7-7-7-7-7-7-6-6-6-6-6-6-6-6-6-6-6-6-4-4-4-4-4-4-7-7-7-7-7-7-7-7-7-7-7-7-7-| x2
A|-7-7-7-7-7-7-4-4-4-4-4-4-4-4-4-4-4-4-2-2-2-2-2-2-7-7-7-7-7-7-7-7-7-7-7-7-7-|
E|-5-5-5-5-5-5-------------------------------------5-5-5-5-5-5-5-5-5-5-5-5-5-|
   *     *     *     *     *   *   * * *     *     *     *     *   *   * * *

[Instrumental outro] 03:34 - 04-17

   G#m      A     -soft-harder- E        G#m   -soft-harder-
e|-4--4-x-x-5------5-5-5-5-5-5--0--0-x-x-4------4-4-4-4-4-4------------------|
B|-4--4-x-x-5------5-5-5-5-5-5--0--0-x-x-4------4-4-4-4-4-4------------------|
G|-4--4-x-x-6------6-6-6-6-6-6--1--1-x-x-4------4-4-4-4-4-4------------------|
D|-6--6-x-x-7------7-7-7-7-7-7--2--2-x-x-6------6-6-6-6-6-6------------------| x3
A|-6--6-x-x-7------7-7-7-7-7-7--2--2-x-x-6------6-6-6-6-6-6------------------|
E|-4--4-x-x-5------5-5-5-5-5-5--0--0-x-x-4------4-4-4-4-4-4------------------|
   D  U D U D      D U D U D U  D  U D U D      D U D U D U

   G#m      A     -soft-harder- E        G#m    
e|-4--4-x-x-5------5-5-5-5-5-5--0--0-x-x-4----|
B|-4--4-x-x-5------5-5-5-5-5-5--0--0-x-x-4----|
G|-4--4-x-x-6------6-6-6-6-6-6--1--1-x-x-4----|
D|-6--6-x-x-7------7-7-7-7-7-7--2--2-x-x-6----| sustain the last chord
A|-6--6-x-x-7------7-7-7-7-7-7--2--2-x-x-6----|
E|-4--4-x-x-5------5-5-5-5-5-5--0--0-x-x-4----|
   D  U D U D      D U D U D U  D  U D U D    


************************************

| *   Above a chord means accent this chord
| x   Dead note
| h   Hammer-on
| p   Pull-off
| /   Slide up
| \   Slide down
| ~   Vibrato
| PM  Palm mute
| -soft-harder- Start strumming soft and go a bit louder with each strum


|------------------------------------------------------------------------------------------------------|
|Side note: if the power chord changes are too fast, you can always (in-between changing chords) strum |
|just the first three strings without placing your fingers on the fret. It even sounds good, sometimes |
|even better then what I tabbed, because it gives you less chance to make a mistake.                   |    
|------------------------------------------------------------------------------------------------------|

************************************

Breakdown of the song if you wish to just strum it all:

00:00 - 00:15 Intro: A - C#m - B - A
00:15 - 00:47 Verse 1: A - C#m - B - A
00:47 - 01:02 Bridge: G#m - A - E - G#m
01:02 - 01:18 Chorus: A - C#m - B - A
01:18 - 01:33 Instrumental part: G#m - A - E - G#m
01:33 - 01:48 Verse 2: A - C#m - B - A
01:49 - 02:05 Bridge: G#m - A - E - G#m
02:05 - 02:20 Chorus: A - C#m - B - A
02:20 - 02:35 Instrumental part: G#m - A - E - G#m
02:35 - 03:03 Instrumental with solo: A - C#m - B
03:03 - 03:19 Instrumental after solo: A - C#m - B - A
03:19 - 03:34 Chorus: A - C#m - B - A
03:34 - 04-17 Instrumental outro: G#m - A - E - G#m

            
            
Suggest correction
Creating personal tab
Creating personal tab
You can edit any tab online and save it as your Personal.

You can edit, replace or remove any tab part or add personal notes – all changes will be seen only by you.

Personal tabs can be accessed anytime from any device, even offline.
Learn more »
Give kudos to tab author, rate the tab!
1 2 3 4 5
comments
print report bad tab
guest
You may want to rate the tab now too:
select rating
Wanna post a correction for this tab? Suggest correction