Oops, an error
Loading. Please wait.

Look At Little Sister tab

version 1
version 1

Whole song

Interactive

34,381 views 105 this week
no commentswrite comment
1 2 3 4 5
x 4
add to favorites
×
Save as Personal and add changes to this tab that will be seen only by you. Learn more ›
×
You can save this tab as Personal to edit and correct it or add notes. All changes will be seen only by you. Learn more »
launch autoscroll
font size
0
reset
how to read this tab
guitar tuner
edit
Autoscroll
slow
fast
+/-
esc
set tempo
stop
LOOK AT LITTLE SISTER
As recorded by Stevie Ray Vaughan
(From the 2003 Album SOUL TO SOUL)
Words by Hank Ballard
Music by Stevie Ray Vaughan
Transcribed by guitargod175
Gtr I (Eb Ab Db Gb Bb Eb) - 'SRV'
Gtr II (Eb Ab Db Gb Bb Eb) - 'rhythm guitar'

[Verse]
Moderate Shuffle Q=112(8=s8)
              E
[4/4]
[Gtr I]
  W           E E E E E E E E   E E E E E E E E
D#|----------|-----------------|-----------------|
A#|----------|-----------------|-----------------|
F#|----------|-----------------|-----------------|
C#|----------|-----------------|-----------------|
G#|----------|-2-2-4-0-2-2-4-0-|-2-2-4-0-2-2-4-0-|
D#|----------|-0-0-0-0-0-0-0-0-|-0-0-0-0-0-0-0-0-|

                                            A7
                    |---3---|   |---3---|
  E E E E E E E E   Q a Q a Q a Q a Q a Q   E E E E E E E E
D#|-----------------|-----------------------|------------------|
A#|-----------------|-----------------------|------------------|
F#|-----------------|-----------------------|------------------|
C#|---------------2-|---0h2-0h2-0h2-0h2-0h2-|-2-2-4-4-5-5-4-4--|
G#|-2-2-4-0-2-2-4-2-|-----------------------|-0-0-0-0-0-0-0-0--|
D#|-0-0-0-0-0-0-0---|-0---------------------|------------------|

                      E
    E E E E E E E E   E E E E E E E E   E E E E E E E E
D#|-----------------|-----------------|-----------------|
A#|---------------0-|-------0---------|---------------0-|
F#|---------0-0-0-0-|-------0---------|---------------0-|
C#|-2-2-4-0-2-2-4-0-|-------0---------|---------------0-|
G#|-0-0-0-0-0-0-0---|-2-2-4---2-2-4-0-|-2-2-4-0-2-2-2---|
D#|-----------------|-0-0-0---0-0-0-0-|-0-0-0-0-0-0-0---|

    B7                A7                E
    E E E E E E E E   E E E E E E E E   E E E E E E E E
D#|-----------------|-----------------|-------0-------0-|
A#|-----------------|---------------0-|-------0-------0-|
F#|-----------------|---------0-0-0-0-|-------0-------0-|
C#|-4-4-6-5-4-4-6-0-|-2-2-4-1-2-2-4-1-|-----------------|
G#|-0-0-0-0-0-0-0-0-|-0-0-0-0-0-0-0---|-2-2-4---2-2-4---|
D#|-----------------|-----------------|-0-0-0---0-0-0---|

                        [Verse]
                           E
  |---3---|   |---3---|
  Q a Q a Q a Q a Q a Q    E E E E E E E E   E E E E E E E E
D#|-----------------------|-----------------|------------------|
A#|-----------------------|-----------------|------------------|
F#|-----------------------|-----------------|------------------|
C#|---0h2-0h2-0h2-0h2-0h2-|-------2---------|-------2----------|
G#|-----------------------|-2-2-4-2-2-2-4-0-|-2-2-4-2-2-2-4-0--|
D#|-0---------------------|-0-0-0---0-0-0-0-|-0-0-0---0-0-0-0--|

                    E7                  A
                            |---3---|
  E E E E E E E E   E E E E Q a Q a Q   E E E E E E E E
D#|-----------------|-------------------|-----------------|
A#|-----------------|-------------------|-----------------|
F#|-----------------|-------------------|-----------------|
C#|-------2---------|-0-0-0-0-0-0h2-0h2-|-2-2-4-4-5-5-4-4-|
G#|-2-2-4-2-2-2-4-0-|-2-2-2-2-2---------|-0-0-0-0-0-0-0-0-|
D#|-0-0-0---0-0-0-0-|-0-0-0-0-0---------|-----------------|

                      E
    E E E E E E E E   E E E E E E E E   E E E E E E E E
D#|-----------------|-------0---------|-----------------|
A#|---------------0-|-------0-------0-|---------------0-|
F#|---------0-0-0-0-|-------0-------0-|---------------0-|
C#|-2-2-4-0-2-2-4-0-|---------------0-|---------------0-|
G#|-0-0-0-0-0-0-0---|-2-2-4---2-2-4---|-2-2-4-0-2-2-4---|
D#|-----------------|-0-0-0---0-0-0---|-0-0-0-0-0-0-0---|

    B7                A7
    E E E E E E E E   E E E E E E E E   E E E E E E E E
D#|-----------------|-----------------|-----------------|
A#|-----------------|---------------0-|-------0---------|
F#|-----------------|---------0-0-0-0-|-------0---------|
C#|-4-4-6-5-4-4-6-0-|-2-2-4-0-2-2-4-0-|-------0---------|
G#|-0-0-0-0-0-0-0-0-|-0-0-0-0-0-0-0---|-2-2-4---2-2-4-0-|
D#|-----------------|-----------------|-0-0-0---0-0-0-0-|

                        [Verse]
  |---3---|   |---3---|
  Q a Q a Q a Q a Q a Q    E E Q  Q  Q       E E Q  Q  Q
D#|-----------------------|-----------------|----------------|
A#|-----------------------|-----------------|----------------|
F#|-----------------------|-----------------|----------------|
C#|-----------------------|-----------------|----------------|
G#|-2-0h2-0h2-0h2-0h2-0h2-|-----------1tr2--|-----------1tr2-|
D#|-0---------------------|-0---------------|-0--------------|

                             A7
    E E Q  H      W          E E E E E E E E
D#|-------------|----------|-----------------|
A#|-------------|----------|-----------------|
F#|-------------|----------|-----------------|
C#|-------------|----------|-2-2-4-4-5-5-4-0-|
G#|-------------|----------|-0-0-0-0-0-0-0-0-|
D#|-0-----------|----------|-----------------|

                      E
    E E E E E E E E   E E E E E E E E   E E E E E E E E
D#|-----------------|-----------------|-----------------|
A#|---------------0-|-------0-------0-|---------------0-|
F#|---------0-0-0-0-|-------0-------0-|---------------0-|
C#|-2-2-4-0-2-2-4-0-|-------0-------0-|---------------0-|
G#|-0-0-0-0-0-0-0---|-2-2-4---2-2-4---|-2-2-4-0-2-2-4---|
D#|-----------------|-0-0-0---0-0-0---|-0-0-0-0-0-0-0---|

    E E E E E E E E   E E E E E E E E   E E E E E E E E
D#|-----------------|-----------------|-----------------|
A#|-----------------|---------------0-|-------0---------|
F#|-----------------|---------0-0-0-0-|-------0---------|
C#|-4-4-6-5-4-4-6-0-|-2-2-4-0-2-2-4-0-|-------0---------|
G#|-0-0-0-0-0-0-0-0-|-0-0-0-0-0-0-0---|-2-2-4---2-2-4-0-|
D#|-----------------|-----------------|-0-0-0---0-0-0-0-|

                        [Sax Solo]
                           E
  |---3---|   |---3---|                                       |-3--|
  Q a Q a Q a Q a Q a Q    E E E E E E E E   E E E E E E a   +E  E E
D#|-----------------------|-----------------|---------------------------|
A#|-----------------------|-----------------|---------------------------|
F#|-----------------------|-----------------|---------------------------|
C#|-----------------------|-------2---------|-----------------------2---|
G#|-2-0h2-0h2-0h2-0h2-0h2-|-2-2-4-2-2-2-4-0-|-2-2-4---2-----------------|
D#|-0---------------------|-0-0-0---0-0-0-0-|-0-0-0-0---0-3b5r(3)p0-----|

                      E7                A
                                                    |-3-|
    E E E E E E E E   E E E E E E E E   E E E E E E E E E
D#|-----------------|-----------------|-------------------|
A#|-----------------|-----------------|-------------------|
F#|-----------------|-----------------|-----------------2-|
C#|-----------------|-0-0-0-0-0-------|-2-2-4-0-2-2-------|
G#|-2-2-4-0-2-2-4-0-|-2-2-2-2-2-------|-0-0-0-0-0-0-3h4---|
D#|-0-0-0-0-0-0-0-0-|-0-0-0-0-0-0-3-4-|-------------------|

                      E
    E E E E E E E E   E E E E E E E E   E E E E E E E E
D#|-----------------|-----------------|-----------------|
A#|---------------0-|-----------------|-----------------|
F#|---------------0-|-----------------|---------------0-|
C#|-2-2-4-0-2-2-4-0-|-----------------|---------------0-|
G#|-0-0-0-0-0-0-0---|-2-2-4-0-2-2-4-0-|-2-2-4-0-2-2-4-0-|
D#|-----------------|-0-0-0-0-0-0-0-0-|-0-0-0-0-0-0-0---|

    B7                A                   E
                                  |-3-|
    E E E E E E E E   E E E E E E E E E   E E E E E E E E
D#|-----------------|-------------------|-----------------|
A#|---------------0-|-------------------|-----------------|
F#|---------------0-|-------------------|-----------------|
C#|-4-4-0-1-4-4-7-0-|-2-2-----2---5p0-2-|-----------------|
G#|-0-0-----0-0-0---|-0-0-3-4-0-0-------|-2-2-4-0-2-2-4-0-|
D#|-----------------|-------------------|-0-0-0-0-0-0-0-0-|

                             [Guitar Solo]
[N.C.]
[Gtr I]
                                 |-------3-------|  |---3----|  |-----3------|  |-------3-------|
  H           E Q          E     S     +S   E    E  S  E.    E  E     +E     E  S     +S
 E    E
D#|----------------------------|-----------------12----12-------15b16-(15)---12-----------------12-|
A#|----------------------------|------------12------15-------12----------------------------12------|
F#|---------------4s========13-|-14b16-(14)-------------------------------------14b16-(14)---------|
C#|----------------------------|-------------------------------------------------------------------|
G#|----------------------------|-------------------------------------------------------------------|
D#|----------------------------|-------------------------------------------------------------------|

[Gtr II]
   |---3---|   |----3----|
  Q a Q a Q a Q   a Q a Q        E            E     E     E     E         E     E
   E
D#|----------------------------|-------------------------------------------------------------------|
A#|----------------------------|-------------------------------------------------------------------|
F#|----------------------------|-------------------------------------------------------------------|
C#|----------------------------|-------------------------------------------------------------------|
G#|-2-0h2-0h2-0h2---0h2-0h2----|--2------------2-----4-----0-----2---------2-----4------------0----|
D#|-0--------------------------|--0------------0-----0-----0-----0---------0-----0------------0----|

   |-------3-------|  |-------3-------|
   S     +S   E    E  E  E    S      +S    E   E E  E
D#|-----------------12---------------------------0----0----|
A#|------------12------15-12---15b17==(15)r(15)\-0----0----|
F#|-14b16-(14)-------------------------------------4\-0----|
C#|--------------------------------------------------------|
G#|--------------------------------------------------------|
D#|--------------------------------------------------------|

     E            E     E    E               E   E E  E
D#|--------------------------------------------------------|
A#|--------------------------------------------------------|
F#|--------------------------------------------------------|
C#|--------------------------------------------------------|
G#|--2------------2-----4----0---------------2---2-4--0----|
D#|--0------------0-----0----0---------------0---0-0--0----|

   |-------3-------|  |-------3-------|  |-------3-------|  |-------3-------|
   S     +S   E    E  S     +S   E    E  S     +S   E    E  S     +S   E    E
D#|------------12---12------------12---12------------12---12------------12---12-|
A#|------------12---12-15b16-(15)------12-15b17-(15)-12---12-15b17-(15)-12---12-|
F#|-14b16-(14)------------------------------------------------------------------|
C#|-----------------------------------------------------------------------------|
G#|-----------------------------------------------------------------------------|
D#|-----------------------------------------------------------------------------|

     E            E     E            E     E            E     E            E
D#|-----------------------------------------------------------------------------|
A#|-----------------------------------------------------------------------------|
F#|-----------------------------------------------------------------------------|
C#|-----------------------------------------------------------------------------|
G#|--2------------2-----4------------0-----2------------2-----4------------0----|
D#|--0------------0-----0------------0-----0------------0-----0------------0----|

                                     A
   |--3--|          |3-|            |3-|          |3-|
   S  S  Q    E  E  E  Q    E  E    E  Q    E  E  E  Q    E  E
D#|-12----15---15-15s17-17---17-17s|=19-19---19-19s17-17---17-17----|
A#|----12-15-----------------------|--------------------------------|
F#|--------------------------------|--------------------------------|
C#|--------------------------------|--------------------------------|
G#|--------------------------------|--------------------------------|
D#|--------------------------------|--------------------------------|

     E       E  E  E  E    E  E  E    E    E  E  E  E    E  E  E
D#|--------------------------------|--------------------------------|
A#|--------------------------------|--------------------------------|
F#|--------------------------------|--------------------------------|
C#|--------------------------------|--2----2--------2----2--4--0----|
G#|--2-------2--4--0--2------------|--0----0--3--4--0----0--0--0----|
D#|--0-------0--0--0--0----0--3--4-|--------------------------------|

                                                E
                                                             ~~~~~~~~~~
   |-----3-----|         |----3-----|  |--3--|    |---3---|                |---3----|
   E  E       +E   E  E  S  S  E    E  E  E  E    E  E    E  E  E  +E   E  E  S  S  E
D#|-16-17b19---(17)-17-16-16h17p16---17-17p16-17-|-17p16--------------------15-16s17-17-|
A#|----------------------------------------------|---------17-17-17-(17)-17-------------|
F#|----------------------------------------------|--------------------------------------|
C#|----------------------------------------------|--------------------------------------|
G#|----------------------------------------------|--------------------------------------|
D#|----------------------------------------------|--------------------------------------|

                                       |--3--|                             |---3----|
   E       E       E  E  E       E     E  E  E    E    E     E  E   E   E  E  E     E
D#|----------------------------------------------|--------------------------------------|
A#|----------------------------------------------|--------------------------------------|
F#|--------------------------------------------0-|--------------------------------------|
C#|--2-------2-------------2-------2-------------|--------------------------------------|
G#|--0-------0-------3--4--0-------0-----3h=4----|--2----2------------2---2-----------2-|
D#|----------------------------------------------|--0----0-----3--4---0---0--3h=4-------|


   |--------3--------|        |-------3--------|   |---3---|
   S      +S    E    E  E   E E  E      S     +S   E  E    E
D#|-17b19==(17)r(17)S==4-19\------------------------12-12---12---|
A#|-------------------------------------------------12-12---12---|
F#|--------------------------------------14b16-(14)--------------|
C#|--------------------------------------------------------------|
G#|--------------------------------------------------------------|
D#|--------------------------/4-0h(4)/---------------------------|

     E               E    E   E E      E             E    E
D#|--------------------------------------------------------------|
A#|--------------------------------------------------------------|
F#|--------------------------------------------------------------|
C#|--------------------------------------------------------------|
G#|--2---------------2----------2------2------------------0------|
D#|--0---------------0----3---4-0------0-------------3-----------|

  B7
   |---3---|  |-------3-------|  |------3------|  |--3--|
   E  E    E  S     +S   E    E  E  S     +S   E  E  E  E
D#|-15-12---12------------12---12---------------------------|
A#|----12---12------------12------15------------15----------|
F#|------------14b16-(14)------------14b16-(14)----14-12----|
C#|------------------------------------------------------14-|
G#|---------------------------------------------------------|
D#|---------------------------------------------------------|

                                                 |--3--|
   E    E     E            E     E         E      E  E  E
D#|---------------------------------------------------------|
A#|---------------------------------------------------------|
F#|---------------------------------------------------------|
C#|--4----4------------------------4---------4------7p=4--0-|
G#|--0----0-----5------------6-----0---------0------0-------|
D#|---------------------------------------------------------|

  A
   |------3------|  |----------3-----------|   |------3-------|           |-----3-----|
   E  S     +S   E  S     +S   E    S     +S   E  S      +S   E  a       +E    S   S  E
D#|-12------------12------------12--------------12-------------12-------------------------|
A#|-12------------12------------12--------------12-------------12-------------------------|
F#|-12-14b16-(14)----14b16-(14)------14b16-(14)----14b16==(14)----14pb16==(14)r(14)-12-14-|
C#|---------------------------------------------------------------------------------------|
G#|---------------------------------------------------------------------------------------|
D#|---------------------------------------------------------------------------------------|

                                                                          |-----3-----|
  E         E      E            E             E          E               E    E      E
D#|---------------------------------------------------------------------------------------|
A#|---------------------------------------------------------------------------------------|
F#|---------------------------------------------------------------------------------------|
C#|--2---------2---------------------------------2----------2---------------------------2-|
G#|--0---------0------3------------4-------------0----------0---------------3h===4--------|
D#|---------------------------------------------------------------------------------------|

  E
      |---3---|  |---3---|  |---3---|  |--3--|
   a  E  E    E  E  E    E  E  E    E  E  E  E
D#|-------12---12-12-12---12-12-12---12-12-12-12-|
A#|-------12---12-12-12---12-12-12---12-12-12-12-|
F#|-12s13----------------------------------------|
C#|----------------------------------------------|
G#|----------------------------------------------|
D#|----------------------------------------------|

                                       |--3--|
      E    E     E    E     E    E     E  E  E
D#|----------------------------------------------|
A#|----------------------------------------------|
F#|----------------------------------------------|
C#|----------------------------------------------|
G#|-----2----2----------------2----2-----4p=2--4-|
D#|-----0----0-----3----4-----0----0-------------|

     N.C.
   |---3---|   |--3--|               |---3----|
   E  E    E  +E     Q    E  E      +E     E  E
D#|-12---------------------------------------------|
A#|-12---------------------------------------------|
F#|---------12-(12)---12---12-12-----(12)----------|
C#|----13---13-(13)---13---13-13-----(13)----------|
G#|----14---14-(14)---14---14-14-----(14)---11-11--|
D#|-----------------------------------------12-12--|

   |--------3--------|    |-------3--------|
   Q    a  Q      a  Q a  Q    a Q      a  Q
D#|------------------------------------------------|
A#|------------------------------------------------|
F#|------------------------------------------------|
C#|--2---------------------------------------------|
G#|-------0h=2------0h=2-0h=2----0h2------0h=2-----|
D#|------------------------------------------------|

[Verse]
[Gtr I]
    E E Q  Q  Q       E E Q  Q  Q       E E Q  H
D#|-----------------|-----------------|-------------|
A#|-----------------|-----------------|-------------|
F#|-----------------|-----------------|-------------|
C#|-----------------|-----------------|-------------|
G#|-----------1tr2--|-----------1tr2--|-------------|
D#|-0---------------|-0---------------|-0-----------|

               A7
    W          E E E E E E E E   E E E E E E E E
D#|----------|-----------------|-----------------|
A#|----------|-----------------|---------------0-|
F#|----------|-----------------|---------0-0-0-0-|
C#|----------|-2-2-4-0-5-5-4-0-|-2-2-4-0-2-2-4-0-|
G#|----------|-0-0-0-0-0-0-0-0-|-0-0-0-0-0-0-0---|
D#|----------|-----------------|-----------------|

  E                                     B7
              |-3-|                         |-3-|
  E E E E E E E E E   E E E E E E E E   E E E E E E E E E
D#|-----------------0-|-----------------|-------------------|
A#|-------0---------0-|-------0-------0-|-------------------|
F#|-------0-----------|-------0-------0-|-------------------|
C#|-------0-----------|-------0-------0-|-4-4-6p5p4-4-4-6-0-|
G#|-2-2-4---2-2-------|-2-2-4---2-2-4---|-0-0-0-----0-0-0-0-|
D#|-0-0-0---0-0-3p0---|-0-0-0---0-0-0---|-------------------|

  A7              E                     N.C.
                                |-3-|   |---3---|   |---3---|
  E E E E E E E E   E E E E E E E E E   Q a Q a Q a Q a Q a Q
D#|-----------------|-----------------0-|------------------------|
A#|---------------0-|-------0---------0-|------------------------|
F#|---------0-0-0-0-|-------0---------0-|------------------------|
C#|-2-2-4-0-2-2-4-0-|-------0-----------|------------------------|
G#|-0-0-0-0-0-0-0---|-2-2-4---2-2-4p0---|---0h2-0h2-0h2-0h2-0h2--|
D#|-----------------|-0-0-0---0-0-0-----|-0----------------------|

[Verse]
    E
    E E E E E E E E   E E E E E E E E   E E E E E E E E
D#|-----------------|-----------------|-----------------|
A#|-----------------|-----------------|-----------------|
F#|-----------------|-----------------|-----------------|
C#|-----------------|-------2---------|-----------------|
G#|-2-2-4-0-2-2-4-0-|-2-2-4-2-2-2-4-0-|-2-2-4-0-2-2-4-0-|
D#|-0-0-0-0-0-0-0-0-|-0-0-0---0-0-0-0-|-0-0-0-0-0-0-0-0-|

  E7                    A7                                  E
      |-3-| |---3---|                                                   |-3-|
  E E E E E Q a Q a Q   E E E E E E E E   E E E E E E E E   E E E E E E E E E
D#|---------------------|-----------------|-----------------|-------------------|
A#|---------------------|-----------------|---------------0-|-------0-----------|
F#|---1-1---------------|-----------------|---------0-0-0-0-|-------0-----------|
C#|---0-0-0-0-2-0h2-0h2-|-2-2-4-4-5-5-4-4-|-2-2-4-0-2-2-4-0-|-------0---------2-|
G#|-2-------------------|-0-0-0-0-0-0-0-0-|-0-0-0-0-0-0-0---|-2-2-4---2-2-------|
D#|-0-------------------|-----------------|-----------------|-0-0-0---0-0-3h4---|

                      B7                A7
    E E E E E E E E   E E E E E E E E   E E E E E E E E
D#|-----------------|-----------------|-----------------|
A#|---------------0-|-----------------|---------------0-|
F#|---------------0-|-----------------|---------0-0-0-0-|
C#|---------------0-|-4-4-6-5-4-4-6-0-|-2-2-4-0-2-2-4-0-|
G#|-2-2-4-0-2-2-4---|-0-0-0-0-0-0-0-0-|-0-0-0-0-0-0-0---|
D#|-0-0-0-0-0-0-0---|-----------------|-----------------|

  E7                             F#9F9 E9
        |-3-| |-3-|   |-3-|
  E  E  E E E E E E a E E E   Q  Q  Q  Q    +H     +E  +E  E  E
D#|-------------0-------------|----9--8--7--|-(7)----(7)-(7)-7-(7)\--|
A#|---------3-3-3-3-3---------|----9--8--7--|-(7)----(7)-(7)-7-(7)\--|
F#|---/4-/4-4-4-4-4-4-4s2-0---|----9--8--7--|-(7)----(7)-(7)---------|
C#|-------------------------2-|----8--7--6--|-(6)----(6)-(6)---------|
G#|---------------------------|----9--8--7--|-(7)----(7)-(7)---------|
D#|-0-------------------------|-0-----------|------------------------|

*****************************************************************************************

[Duration Legend]
W - whole; H - half; Q - quarter; E - 8th; S - 16th; T - 32nd; X - 64th; a - acciaccatura
+ - note tied to previous; . - note dotted; .. - note double dotted
Uncapitalized letters represent notes that are staccato (1/2 duration)
Irregular groupings are notated above the duration line
Duration letters will always appear directly above the note/fret number it represents the
duration for.  Duration letters with no fret number below them represent rests.  Multi-
bar rests are notated in the form Wxn, where n is the number of bars to rest for.  Low
melody durations appear below the staff

[Tablature Legend]
 h   - hammer-on
 p   - pull-off
 b   - bend
 pb  - pre-bend
 r   - bend release (if no number after the r, then release immediately)
 /\  - slide into or out of (from/to "nowhere")
 s   - legato slide
 S   - shift slide
  - natural harmonic
[n]  - artificial harmonic
n(n) - tapped harmonic
 ~   - vibrato
 tr  - trill
 T   - tap
 TP  - trem. picking
 PM  - palm muting
\n/  - tremolo bar dip; n = amount to dip
 \n  - tremolo bar down
 n/  - tremolo bar up
/n\  - tremolo bar inverted dip
 =   - hold bend; also acts as connecting device for hammers/pulls
 <>  - volume swell (louder/softer)
 x   - on rhythm slash represents muted slash
 o   - on rhythm slash represents single note slash

[Misc Legend]
 |  - bar
||  - double bar
||o - repeat start
o|| - repeat end
*|  - double bar (ending)
 :  - bar (freetime)
 $  - Segno
 &  - Coda
Tempo markers -  = BPM(8/16=s8/s16), where s8 = swing 8ths, s16 = swing 16ths

*********************************************************************************************

            
            
Suggest correction
Creating personal tab
Creating personal tab
You can edit any tab online and save it as your Personal.

You can edit, replace or remove any tab part or add personal notes – all changes will be seen only by you.

Personal tabs can be accessed anytime from any device, even offline.
Learn more »
comments
print report bad tab
guest
Wanna post a correction for this tab? Suggest correction