Oops, an error
Loading. Please wait.

So Excited tab

version 1
version 1

Whole song

Interactive

3,161 views 3 this week
1 commentread comment
1 2 3 4 5
2 more votes to show rating
add to favorites
×
Save as Personal and add changes to this tab that will be seen only by you. Learn more ›
×
You can save this tab as Personal to edit and correct it or add notes. All changes will be seen only by you. Learn more »
launch autoscroll
font size
0
reset
how to read this tab
guitar tuner
edit
Autoscroll
slow
fast
+/-
esc
set tempo
stop
                             So Exited---Stevie Ray Vaughan                                     


 
Tuning: 1/2 step down for guitar and bass.

                                                             
Stevie Ray Vaughan (Guitar)



      Q.     Q    E  Q    E  Q    E     Q.      W                 E   
D#||---------------------------------|----------5~----------------L--|
A#||---------------------------------|----------5~----------------L--|
F#||-----------------5----5--7----5--|--7b---------------------------|
C#||---------5----7------------------|-------------------------------|
G#||---------------------------------|-------------------------------|
D#||---------------------------------|-------------------------------|


  Q    E  H        E  E  Q    E     Q    E  Q    E  Q    E  E  E  E   
---------------------------------|-----------------------------------|
---------------------------------|--------------------------------5--|
----------7-----------5----------|-----------------------5--------5--|
-------5-----------------7----5--|--7-------7----7--5----5-----------|
-------5-------------------------|--------------------------5--6-----|
---------------------------------|-------5---------------------------|


  Q    E  Q    E  Q    E  Q    E     Q.      W                E    
----------------------------------|----------5--------------------|
----------------------------------|----------5--------------------|
------------------5----5--7----5--|--7b-----------------------7b--|
----------7----7------------------|-------------------------------|
----------------------------------|-------------------------------|
--5----5--------------------------|-------------------------------|


  Q.     Q.     Q    E  Q    E     Q    E  Q    E  Q    E  E  E  E   
--L------5----------------------|-----------------------------------|
--L------5----------------------|-----------------------------------|
---------L------7----5----------|-----------------------5--------5--|
------------------------7----5--|--7-------7----7--5-------5--5-----|
--------------------------------|--------------------------5--5-----|
--------------------------------|-----------------------------------|


  Q    E  Q    E  Q    E  Q    E     Q.      Q.     Q    Q.     E   
----------------------------------|----------5---------------------|
----------------------------------|----------5---------------------|
------------------5----5--7----5--|--7b-------------7----5------5--|
----------7----7------------------|-----------------------------5--|
----------------------------------|--------------------------------|
--5----5--------------------------|--------------------------------|


  Q.      Q.     Q    Q.     E     Q    E  E  E  E  Q    E  E  E  E   
----------5---------------------|------------------------------------|
----------5---------------------|-------5----------------------------|
--7b-------------7----5---------|--7----5-----------7----5--------5--|
-----------------------------5--|----------------5-------------------|
-----------------------------5--|----------5-----5----------5--------|
--------------------------------|----------------5----------5--------|


  Q    E  Q    E  Q.      Q    E     Q.      W                 E   
----------------------------------|----------3~----------------L--|
----------------------------------|----------3-----------------L--|
--7----5----------5~------7----5--|--7b---------------------------|
----------7----7------------------|-------------------------------|
----------------------------------|-------------------------------|
----------------------------------|-------------------------------|


  H        E  E  Q.     Q    E     Q    E  E   E  E  E  E  E  E   E  E   
--L-----------------------------|-----------------5-----5---------------|
--L-----------------------------|--------------5-----8-----5------------|
-----------------7------7----7--|--5-------7b-----------------7b--------|
--------------5-----------------|-------5-------------------------5-----|
--------------5-----------------|---------------------------------------|
--------------------------------|---------------------------------------|


  E  E  E  E  H        E  Q    E     Q.     H.           Q.      
--------------------------5----5--|---------3------------L------|
-----------------------L--5----5--|---------3------------L------|
--7--5-----5--7-------------------|--7--------------------------|
--------7-------------------------|-----------------------------|
----------------------------------|-----------------------------|
----------------------------------|-----------------------------|


              |--3-|                                                     
  H        E  S S  S Q.     Q    E     Q    E  Q    E  E  E  E  Q    E   
--L--------L------------------------|-----------------------------------|
--L--------L------------------------|---------------------------7-------|
----------------5h-7-7------7----5--|--L------------------------7----7--|
------------------------------------|-------5---------------------------|
------------------------------------|----------7----5--5--5--5----------|
------------------------------------|---------------5--5--5--5----------|


  Q    E  E   E  E  H.                E  E  E  E  E  E   Q    E  E   E  E   
-----------------5-----------------|--5--7--7--7--5---------------------5--|
--------------5-----8b~------------|-----------------8~--5----5------5-----|
--5-------7b-----------------------|-----------------------------7b--------|
-------5---------------------------|---------------------------------------|
-----------------------------------|---------------------------------------|
-----------------------------------|---------------------------------------|


  E  Q     E  E  E  Q    E  Q    E     Q    E  E   E  E  E  E  Q    E  E   
-----------5------------------------|--------------5--5-------------------|
--5--8b-------8--5------------------|--------------5--5--8--5-------------|
--------------------7----5----------|----------7b--------------7----5-----|
----------------------------7----5--|--7----------------------------------|
------------------------------------|----------------------------------7--|
------------------------------------|-------5-----------------------------|


                                                                   |-3-|  
  Q    E  Q    E  Q    E  Q    E     Q    E  Q    E  Q    E  E  E  S S S  
-------5--------------------------|--------------------------------------|
----------------------------------|--------------------------------------|
--5-------------------------------|--------------------------------5-L-L-|
------------------5----5--6----7--|----------7----7--5----5--------------|
---------------7------------------|--------------------------5--7--------|
----------7-----------------------|--5----5------------------------------|


                                                                   |-3-|  
  Q    E  Q    E  Q    E  Q    E     Q    E  Q    E  Q    E  E  E  S S S  
-------------------------------5--|--------------------------------------|
-------------------------------5--|--------------------------------------|
----------7----7--5----5-------5--|-----------------------5--------5-L-L-|
--------------------------7-------|----------7----7--5----5--------------|
----------------------------------|--------------------------5--7--------|
--5----5--------------------------|--5----5------------------------------|


                                                                  |-3-|  
  Q    E  Q    E  Q    E  Q    E     Q    E  Q    E  Q    E  Q    S S S  
-------------------------------5--|--L----------------------------------|
-------------------------------5--|--L--------------------5-------------|
-------------------------------5--|--L-------7----7--5----5-------5-L-L-|
----------7----7--5----5--7-------|-------5------------------7----------|
----------------------------------|-------5-----------------------------|
--5----5--------------------------|-------------------------------------|


                               |-3-|        3                             3  
  Q    E  Q    E  Q    E  Q    S S S    E.  T E  Q    E  Q    E  E  E  E  S  
-------------------------------------|--------------------------------------|
-------------------------------------|--------------------------------------|
----------7----7--5----5-------5---L-|--L---L-------------------------------|
--------------------------7----------|-----------7----7--5----5--------5----|
--5----5-----------------------------|---------------------------5--7-------|
-------------------------------------|--------5---------------------------5-|


      3                            3        3                         |-3-| 3  
  E.  T E  Q    E  Q    E  Q    E  S    E.  T E  Q    E  Q    E  Q    S S S S  
-------------------------------------|-----------4----4-----------------------|
-------------------------------------|-----------5----5--7----7--5----5-L-L---|
-----------7----7--5----5------------|-------------------7----7-------5-L-L---|
---------------------------7----L----|--------7-------------------------------|
--L---L------------------------------|--------------------------------------5-|
--------5--------------------------5-|--L---L---------------------------------|


      3                            3    3                                3  
  E.  T E  Q    E  Q    E  Q    E  S    H        Q    E  Q    E  Q    E  S  
-------------------------------------|-------------------------------------|
-------------------------------------|-------------------------------------|
-----------7----5--7----5------------|-------------------------------------|
---------------------------7-------7-|--L--------5----5------------------7-|
--L---L-5----------------------------|-------------------5----5------------|
--------------------------------5----|---------------------------8----5----|


               3               3    3                                 3  
  H        E.  T Q.     Q.     S    H        Q    E  H        E   E   S  
---------------------------------|-------------------------------12S--0-|
---------------------------------|--L----------------------------12\--0-|
---------------L---------------5-|--L-----------------------------------|
--L--------L-----5------7--------|-----------7----7--5------------------|
---------------------------------|--------------------------------------|
---------------------------------|--------------------------------------|


      3                            3        3                             3  
  E.  T E  Q    E  Q    E  Q    E  S    E.  T E  Q    E  Q    Q.      E   S  
--L-----------------------------5----|--------------------------------------|
--L-----------------------------0----|-------------------------------17-----|
-----------------------------------5-|--L---L-7-----------------------------|
-----------7----7--5----5------------|----------------7--5----5------16--17-|
--------5------------------7---------|-----------5--------------------------|
-------------------------------------|--------------------------------------|


      3                            3        3                            3  
  E.  T E  Q    E  Q    E  Q    E  S    E.  T E  Q    E  Q    E  Q    E  S  
--------------------------------5----|--------------------------------5----|
--------------------------------0----|--------------------------------0----|
--------5--------------------------5-|--L---L-5--7----7--5----5----------5-|
--L---L-5--7----7--5----5------------|--------5------------------7---------|
---------------------------7---------|-------------------------------------|
-------------------------------------|-------------------------------------|


      3                              3        3                         3     
  E.  T E  Q    E  Q    E  Q     E   S    E.  T E  Q    E  Q    E  Q    Q     
---------------------------------------|--------------------------------5----|
-------------------5----5-------17-----|--------------------------------0----|
--L---L----7----7--5----5--------------|--------5----------------------------|
--------5------------------7----16--17-|--L---L-5--7----7--5----5------------|
---------------------------------------|---------------------------7---------|
---------------------------------------|-------------------------------------|


      3                             3        3                         |-3-| 3  
  E.  T E  Q    E  Q    E  E  E  E  S    E.  T E  Q    E  Q    E  Q    S S S S  
--------------------------------------|-----------4----4-----------------------|
------------------------------5-------|-----------5----5--7----7---------7-----|
--------5------------------------5----|-------------------7----7--5----L---7---|
--------5--7----7--5----5--7----------|--L-----------------------------------5-|
--L---L-----------------------------5-|--L---L-7-------------------------------|
--------------------------------------|----------------------------------------|


      3                         |-3-| 3        3                            3   
  E.  T E  Q    E  Q    E  Q    S S S S    E.  T E  Q    E  Q    E  Q    E  S   
--------------------------------5-0-----|--------------------------------------|
-----------7----7--5----5---------------|--------------------------------------|
-----------7----7--5----5-----------5---|--------------------------------5--7b-|
--L---L--------------------7------------|-----------7----7--5----5--7----5-----|
--------5-------------------------------|--------------------------------------|
--------------------------------------5-|--L-----5-----------------------------|


                                      3                                    3  
  H        E  E  E  E  E  E  E  E     E   E  E  E  E  E  E  E  E  E  E  E  S  
-----------5--5-----5-----5--5-----|------5--7--5--6--5--5-----8--5----------|
-----------5--5--8--5--8--5--5--8--|--8b--5--------------5--5-----5--8--5----|
--L--------L-----------------------|---------------------------------------7-|
-----------------------------------|-----------------------------------------|
-----------------------------------|-----------------------------------------|
-----------------------------------|-----------------------------------------|


  3                                    3              3                     3  
  E  E  E  E  E  Q     Q     E   E  E  S    H         E  E  Q    E  Q    E  S  
--------5--------------------------------|------------------------------------|
-----5--5--8--5--------------------------|-------------------------------5----|
--L--------------7b----7b----7b--5-----5-|--7b--------7------------------5----|
------------------------------------7----|------------------7---------------7-|
-----------------------------------------|---------------5-------5------------|
-----------------------------------------|--------------------------0---------|


  3                                3        3                              3    
  E  E  E  H.               Q.     S        H        Q    H        Q    E  S    
-----5--5--------------------------------|-------------------------------------|
-----5--5--8brb~------------L------8brb~-|--L--------8----L--------L----8--8b~-|
-----------------------------------------|-----------7-------------7----7------|
--L--------------------------------------|-------------------------------------|
-----------------------------------------|-------------------------------------|
-----------------------------------------|-------------------------------------|


  3                                 3                      3           3  
  H        Q.     Q.     Q     E    S    H.            E.  T Q.     E  S  
--------------------------------------|----------------5---L-5-----------|
--L--------8------8------8b----8pb--L-|--8~------------5-----5------7--7-|
-----------7------7-------------------|--7--------------------------7--7-|
--------------------------------------|----------------------------------|
--------------------------------------|----------------------------------|
--------------------------------------|----------------------------------|


  3                                  3     3                                3  
  E  E  E  Q.     E  E  E  E   E  E  S     E  E  Q    E  E  Q    E  Q    E  S  
----------------------------------5-----|-----5--7----5--5-------5------------|
--L----------------------------5-----8b-|--L--5-------5--5--8----5------------|
-----5-----5---------------7b-----------|---------------------------7----5--7-|
--------7---------7--5------------------|--------------------------------5--7-|
------------------------7---------------|-------------------------------------|
----------------------------------------|-------------------------------------|


  3                                   3  
  E  E  E  E  E  E  E  E  E  E  E  E  S  
-----9--9--9--9--9--9--9--9-------------|
-----8--8--8--8--8--8--8--8-------------|
--L--------7--------7-----------5-----5-|
-----------------------------7-----7----|
----------------------------------------|
----------------------------------------|


      3                                3  
  E.  T E  E   E  E  E  E  E  E  E  E  S  
---------------5--5-----5--5-----5--5--5-|
---------------5--5--8--5--5--8--5--5--5-|
--L---L-5--7b----------------------------|
--------5--------------------------------|
-----------------------------------------|
-----------------------------------------|


  3                                   3  
  E  E   E  Q    E  E   H         E   S  
--L------5--5----5--8--10~--------L--10-|
--L--8b---------------------------------|
----------------------------------------|
----------------------------------------|
----------------------------------------|
----------------------------------------|


  3                                     3  
  H         Q.      E   Q    E  E   E   S  
--L--------10b------8-----------7--12--12-|
-----------------------10----------13--12-|
------------------------------------------|
------------------------------------------|
------------------------------------------|
------------------------------------------|


      3                            3  
  E.  T E  Q    Q.     E  Q    E   S  
--L---L---------------------------10-|
--L---L----------------5-------------|
--------5--7----5------5-------5-----|
--------5-----------------7----5-----|
-------------------------------------|
-------------------------------------|


  3                                     3    3                            3     
  H         Q      Q.     E    Q    E   S    H        Q     H.            Q     
--L--------10~----10------8b--------------|-----------8----10~------------L----|
------------------------------10----L--10-|--L---------------------------------|
------------------------------------------|------------------------------------|
------------------------------------------|------------------------------------|
------------------------------------------|------------------------------------|
------------------------------------------|------------------------------------|


  3                                   3  
  H         Q     E   H        E  E   S  
--L--------10b----8---------------8-----|
---------------------10--------L-----10-|
----------------------------------------|
----------------------------------------|
----------------------------------------|
----------------------------------------|


  3                                    3    3                           3      
  E  E   E  E  E   E  E  Q    E  E  E  S    E  Q    H        E  E  Q    Q      
-----------------------------------------|-------------------------5----------|
--L--8--10--------10--8------------------|-------------------------5----------|
------------7--9---------7----7--5-----5-|--L--7----7--------L----------7~----|
------------------------------------7----|------------------------------------|
-----------------------------------------|----------------------5-------------|
-----------------------------------------|------------------------------------|


  3                                     3  
  E  E  E  Q    E  E  E  E    Q     E   S  
-------------------------8\--16----17-----|
---------------------------------------17-|
--L--5-----7----5--5--7-------------------|
--------7---------------------------------|
------------------------------------------|
------------------------------------------|


  3                                       3  
  H         Q     E   Q     E   Q     E   S  
-----------17----17--15----17------------15-|
--L--------17----17------------17----17-----|
--------------------------------------------|
--------------------------------------------|
--------------------------------------------|
--------------------------------------------|


  3                                           3  
  E   E   E   E   E   E   Q     E   Q     E   S  
--L--17------15--17-----------------------------|
---------17----------17-------------------------|
------------------------------------------------|
------------------------------------------------|
-------------------------------15--17----17--15-|
-------------------------17---------------------|


      3                                        3  
  E.  T  E   E   E   E   E   E   E   Q     E   S  
-------------------------------------------------|
-------------------------------------------------|
--------------------14------12--14--14----14--14-|
------------12--14------14-----------------------|
------L------------------------------------------|
--------15---------------------------------------|


  3                                       3   
  H         Q     E   Q     E   Q     E   S   
-------------------------------10~----L--10b-|
---------------------13----13----------------|
--L--------14----14--------------------------|
---------------------------------------------|
---------------------------------------------|
---------------------------------------------|


      3                           3     
  E.  T E   Q.      Q.     E   E  Q     
--L---L-8------------------8-----------|
-----------10------10---------10--8----|
---------------------------------------|
---------------------------------------|
---------------------------------------|
---------------------------------------|


  3                                   3                  3                   3  
  E   Q    Q     Q.      E   Q     E  S     H        E.  T  Q.      Q     E  S  
-----------8----10b------8------------8~-|--L--------L---L-------------------8-|
--L--10---------------------10----10-----|-----------------10------10----10----|
-----------------------------------------|-------------------------------------|
-----------------------------------------|-------------------------------------|
-----------------------------------------|-------------------------------------|
-----------------------------------------|-------------------------------------|


           3                   3        3                         3     
  H        E  H         Q.     S    E.  T W                   E   Q     
--L--------L--9~--------9------L-|--L---L-9brb----------------L--10----|
---------------------------------|-------------------------------------|
---------------------------------|-------------------------------------|
---------------------------------|-------------------------------------|
---------------------------------|-------------------------------------|
---------------------------------|-------------------------------------|


  3                                  3  
  H         Q     Q.     E   Q.      S  
--L--------10----10------8-------------|
----------------------------10------10-|
---------------------------------------|
---------------------------------------|
---------------------------------------|
---------------------------------------|


  3                                   3  
  H        E   E  E  Q     E  Q    E  S  
-----------8----------------------------|
--L-----------10--8-------10--8---------|
---------------------9-------------8--7-|
----------------------------------------|
----------------------------------------|
----------------------------------------|


  3                                  3             3                       3   
  E  E  E  Q    E  Q    E  E   E  E  S      Q.     E  E  E  Q    Q.     E  S   
----------------------------------5------|------------5--7--------------------|
-------------------------------5-----8b~-|---------L--------8----5------5-----|
--L--5-----7----7--5----5--7b------------|---------------------------------7b-|
--------7---------------5----------------|------------------------------------|
-----------------------------------------|------------------------------------|
-----------------------------------------|------------------------------------|


  3                               3        3                               3  
  E  E  E  Q    Q.     E  Q    E  S    E.  T E  E   E  E  E  E  Q    E  E  S  
--------5---------------------------|------------------5---------------------|
-----5--5--8------------------------|--------5------5--------5-------------5-|
--L--------------------5--7----5----|--------5--7b--------7-----7----5-----5-|
----------------7-----------------7-|------L----------------------------7----|
------------------------------------|----------------------------------------|
------------------------------------|----------------------------------------|


           3                  3       3                             3     
  H        E  E   Q    Q.     Q       H        Q    E  Q    E  Q    Q     
-----------------------------------|-------------------------------------|
--L--------L-----------5------5----|--L----------------------------------|
--L--------L-----------5------5----|--L-----------------------------7----|
-----------------------------------|-----------7----7--5----5------------|
--------------5h--7----------------|---------------------------7---------|
-----------------------------------|-------------------------------------|


      3                         3           3                        3     
  E.  T Q.      E  Q    E  Q    Q       E.  T Q.     E  Q    E  Q    Q     
-------------------------------------|------------------------------------|
-------------------------------------|------------------------------------|
--L---L-5~----------------------7----|--L---L-5----------------------7----|
----------------7--5----5------------|---------------7--5----5------------|
---------------------------7---------|--------------------------7---------|
-------------------------------------|------------------------------------|


      3                        3           3                         3     
  E.  T Q.     E  Q    E  Q    Q       E.  T E  Q    E  Q    E  Q    Q     
-------------------------------5----|--L---L-------------------------5----|
-------------------------------5----|--L---L----7--------------------5----|
--L---L-5----------------------5----|--L---L-5--7----7--5----5-------5----|
---------------7--5----5--7---------|--------5------------------7---------|
------------------------------------|-------------------------------------|
------------------------------------|-------------------------------------|


      3                         3           3                         3     
  E.  T E  Q    E  Q    E  Q    Q       E.  T E  Q    E  Q    E  Q    Q     
--L---L-------------------------5----|--L---L-------------------------5----|
--L---L-5--7--------------------5----|--L---L-------------------------5----|
--L---L-5--7----7--5----5-------5----|--L---L-5-----------------------5----|
---------------------------7---------|--------5--7----7--5----5------------|
-------------------------------------|---------------------------7---------|
-------------------------------------|-------------------------------------|


      3                         |-3-| 3  
  E.  T E  Q    E  Q    E  Q    S S S S  
--L---L---------------------------------|
--L---L-5---------------5-------5-------|
--L---L-5--7----7--5----5---------------|
---------------------------7------5-5---|
--------------------------------------5-|
----------------------------------------|


      3                         |-3-| 3  
  E.  T E  Q    E  Q    E  Q    S S S S  
--------------------------------7-------|
-----------5----5--7----7---------7-----|
---------------------------7--------7---|
--L---L-2-----------------------------7-|
----------------------------------------|
----------------------------------------|


      3                         |-3-| 3        3                           3   
  E.  T E  Q    E  Q    E  Q    S S S S    E.  T E  Q    E  Q    E  Q.     S   
--------------------------------5-0-----|-------------------------------------|
-----------7-------5--------------------|-------------------------------------|
-----------7----7--5----5-----------5---|-----------2----2--0----0--1------2~-|
--L---L-0------------------7------------|-------------------------------------|
--------------------------------------0-|--L---L-0----------------------------|
----------------------------------------|-------------------------------------|


  W                H          
----------------------------||
----------------------------||
--L----------------L--------||
----------------------------||
----------------------------||
----------------------------||





____________________________________________________________________________________
____________________________________________________________________________________
____________________________________________________________________________________





Bass: 1/2 step down



      W                H           Q    E  Q    E  Q    E  Q    E   
F#||----------------------------|------------------0----0--2----2--|
C#||----------------------------|----------2----2------------------|
G#||----------------------------|--0----0--------------------------|
D#||----------------------------|----------------------------------|


  Q    E  Q    E  Q    E  Q    E     Q    E  Q    E  Q    E  Q    E   
------------------0----0--2----2--|------------------0----0--2----2--|
----------2----2------------------|----------2----2------------------|
--0----0--------------------------|--0----0--------------------------|
----------------------------------|----------------------------------|


  Q    E  Q    E  Q    E  Q    E     Q    E  Q    E  Q    E  Q    E   
------------------0----0--2----2--|----------2----2--5----5--7----7--|
----------2----2------------------|--0----0--------------------------|
--0----0--------------------------|----------------------------------|
----------------------------------|----------------------------------|


  Q    E  Q    E  Q    E  Q    E     Q    E  Q    E  Q    E  Q    E   
----------2----2--5----5--7----7--|------------------0----0--2----2--|
--0----0--------------------------|----------2----2------------------|
----------------------------------|--0----0--------------------------|
----------------------------------|----------------------------------|


  Q    E  Q    E  Q    E  Q    E     Q    E  Q    E  Q    E  Q    E   
------------------0----0--2----2--|----------------------------------|
----------2----2------------------|------------------0----0--2----2--|
--0----0--------------------------|----------2----2------------------|
----------------------------------|--0----0--------------------------|


  Q    E  Q    E  Q    E  Q    E     Q    E  Q    E  Q    E  Q    E   
----------2----2--5----5--7----7--|------------------0----0--2----2--|
--0----0--------------------------|----------2----2------------------|
----------------------------------|--0----0--------------------------|
----------------------------------|----------------------------------|


  W                H           Q    E  Q    E  Q    E  Q    E   
----------------------------|------------------0----0--2----2--|
----------------------------|----------2----2------------------|
--0----------------L--------|--0----0--------------------------|
----------------------------|----------------------------------|


  Q    E  Q    E  Q    E  Q    E     Q    E  Q    E  Q    E  Q    E   
------------------0----0--2----2--|------------------0----0--2----2--|
----------2----2------------------|----------2----2------------------|
--0----0--------------------------|--0----0--------------------------|
----------------------------------|----------------------------------|


  Q    E  Q    E  Q    E  Q    E     Q    E  Q    E  Q    E  Q    E   
------------------0----0--2----2--|----------2----2--5----5--7----7--|
----------2----2------------------|--0----0--------------------------|
--0----0--------------------------|----------------------------------|
----------------------------------|----------------------------------|


  Q    E  Q    E  Q    E  Q    E     Q    E  Q    E  Q    E  Q    E   
----------2----2--5----5--7----7--|------------------0----0--2----2--|
--0----0--------------------------|----------2----2------------------|
----------------------------------|--0----0--------------------------|
----------------------------------|----------------------------------|


  Q    E  Q    E  Q    E  Q    E     Q    E  Q    E  Q    E  Q    E   
------------------0----0--2----2--|----------------------------------|
----------2----2------------------|------------------0----0--2----2--|
--0----0--------------------------|----------2----2------------------|
----------------------------------|--0----0--------------------------|


  Q    E  Q    E  Q    E  Q    E     Q    E  Q    E  Q    E  Q    E   
----------2----2--5----5--7----7--|------------------0----0--2----2--|
--0----0--------------------------|----------2----2------------------|
----------------------------------|--0----0--------------------------|
----------------------------------|----------------------------------|


  W                H           Q    E  Q    E  Q    E  Q    E   
----------------------------|------------------0----0--2----2--|
----------------------------|----------2----2------------------|
--0----------------L--------|--0----0--------------------------|
----------------------------|----------------------------------|


  Q    E  Q    E  Q    E  Q    E     Q    E  Q    E  Q    E  Q    E   
------------------0----0--2----2--|------------------0----0--2----2--|
----------2----2------------------|----------2----2------------------|
--0----0--------------------------|--0----0--------------------------|
----------------------------------|----------------------------------|


  Q    E  Q    E  Q    E  Q    E     Q    E  Q    E  Q    E  Q    E   
------------------0----0--2----2--|----------2----2--5----5--7----7--|
----------2----2------------------|--0----0--------------------------|
--0----0--------------------------|----------------------------------|
----------------------------------|----------------------------------|


  Q    E  Q    E  Q    E  Q    E     Q    E  Q    E  Q    E  Q    E   
----------2----2--5----5--7----7--|------------------0----0--2----2--|
--0----0--------------------------|----------2----2------------------|
----------------------------------|--0----0--------------------------|
----------------------------------|----------------------------------|


  Q    E  Q    E  Q    E  Q    E     Q    E  Q    E  Q    E  Q    E   
------------------0----0--2----2--|----------------------------------|
----------2----2------------------|------------------0----0--2----2--|
--0----0--------------------------|----------2----2------------------|
----------------------------------|--0----0--------------------------|


  Q    E  Q    E  Q    E  Q    E     Q    E  Q    E  Q    E  Q    E   
----------2----2--5----5--7----7--|------------------0----0--2----2--|
--0----0--------------------------|----------2----2------------------|
----------------------------------|--0----0--------------------------|
----------------------------------|----------------------------------|


  W                H           Q    E  Q    E  Q    E  Q    E   
----------------------------|------------------0----0--2----2--|
----------------------------|----------2----2------------------|
--0----------------L--------|--0----0--------------------------|
----------------------------|----------------------------------|


  Q    E  Q    E  Q    E  Q    E     Q    E  Q    E  Q    E  Q    E   
------------------0----0--2----2--|------------------0----0--2----2--|
----------2----2------------------|----------2----2------------------|
--0----0--------------------------|--0----0--------------------------|
----------------------------------|----------------------------------|


  Q    E  Q    E  Q    E  Q    E     Q    E  Q    E  Q    E  Q    E   
------------------0----0--2----2--|----------2----2--5----5--7----7--|
----------2----2------------------|--0----0--------------------------|
--0----0--------------------------|----------------------------------|
----------------------------------|----------------------------------|


  Q    E  Q    E  Q    E  Q    E     Q    E  Q    E  Q    E  Q    E   
----------2----2--5----5--7----7--|------------------0----0--2----2--|
--0----0--------------------------|----------2----2------------------|
----------------------------------|--0----0--------------------------|
----------------------------------|----------------------------------|


  Q    E  Q    E  Q    E  Q    E     Q    E  Q    E  Q    E  Q    E   
------------------0----0--2----2--|----------------------------------|
----------2----2------------------|------------------0----0--2----2--|
--0----0--------------------------|----------2----2------------------|
----------------------------------|--0----0--------------------------|


  Q    E  Q    E  Q    E  Q    E     Q    E  Q    E  Q    E  Q    E   
----------2----2--5----5--7----7--|------------------0----0--2----2--|
--0----0--------------------------|----------2----2------------------|
----------------------------------|--0----0--------------------------|
----------------------------------|----------------------------------|


  W                H           Q    E  Q    E  Q    E  Q    E   
----------------------------|------------------0----0--2----2--|
----------------------------|----------2----2------------------|
--0----------------L--------|--0----0--------------------------|
----------------------------|----------------------------------|


  Q    E  Q    E  Q    E  Q    E     Q    E  Q    E  Q    E  Q    E   
------------------0----0--2----2--|------------------0----0--2----2--|
----------2----2------------------|----------2----2------------------|
--0----0--------------------------|--0----0--------------------------|
----------------------------------|----------------------------------|


  Q    E  Q    E  Q    E  Q    E     Q    E  Q    E  Q    E  Q    E   
------------------0----0--2----2--|----------2----2--5----5--7----7--|
----------2----2------------------|--0----0--------------------------|
--0----0--------------------------|----------------------------------|
----------------------------------|----------------------------------|


  Q    E  Q    E  Q    E  Q    E     Q    E  Q    E  Q    E  Q    E   
----------2----2--5----5--7----7--|------------------0----0--2----2--|
--0----0--------------------------|----------2----2------------------|
----------------------------------|--0----0--------------------------|
----------------------------------|----------------------------------|


  Q    E  Q    E  Q    E  Q    E     Q    E  Q    E  Q    E  Q    E   
------------------0----0--2----2--|----------------------------------|
----------2----2------------------|------------------0----0--2----2--|
--0----0--------------------------|----------2----2------------------|
----------------------------------|--0----0--------------------------|


  Q    E  Q    E  Q    E  Q    E     Q    E  Q    E  Q    E  Q    E   
----------2----2--5----5--7----7--|------------------0----0--2----2--|
--0----0--------------------------|----------2----2------------------|
----------------------------------|--0----0--------------------------|
----------------------------------|----------------------------------|


  W                H           Q    E  Q    E  Q    E  Q    E   
----------------------------|------------------0----0--2----2--|
----------------------------|----------2----2------------------|
--0----------------L--------|--0----0--------------------------|
----------------------------|----------------------------------|


  Q    E  Q    E  Q    E  Q    E     Q    E  Q    E  Q    E  Q    E   
------------------0----0--2----2--|------------------0----0--2----2--|
----------2----2------------------|----------2----2------------------|
--0----0--------------------------|--0----0--------------------------|
----------------------------------|----------------------------------|


  Q    E  Q    E  Q    E  Q    E     Q    E  Q    E  Q    E  Q    E   
------------------0----0--2----2--|----------2----2--5----5--7----7--|
----------2----2------------------|--0----0--------------------------|
--0----0--------------------------|----------------------------------|
----------------------------------|----------------------------------|


  Q    E  Q    E  Q    E  Q    E     Q    E  Q    E  Q    E  Q    E   
----------2----2--5----5--7----7--|------------------0----0--2----2--|
--0----0--------------------------|----------2----2------------------|
----------------------------------|--0----0--------------------------|
----------------------------------|----------------------------------|


  Q    E  Q    E  Q    E  Q    E     Q    E  Q    E  Q    E  Q    E   
------------------0----0--2----2--|----------------------------------|
----------2----2------------------|------------------0----0--2----2--|
--0----0--------------------------|----------2----2------------------|
----------------------------------|--0----0--------------------------|


  Q    E  Q    E  Q    E  Q    E     Q    E  Q    E  Q    E  Q    E   
----------2----2--5----5--7----7--|------------------0----0--2----2--|
--0----0--------------------------|----------2----2------------------|
----------------------------------|--0----0--------------------------|
----------------------------------|----------------------------------|


  W                H           Q    E  Q    E  Q    E  Q    E   
----------------------------|------------------0----0--2----2--|
----------------------------|----------2----2------------------|
--0----------------L--------|--0----0--------------------------|
----------------------------|----------------------------------|


  Q    E  Q    E  Q    E  Q    E     Q    E  Q    E  Q    E  Q    E   
------------------0----0--2----2--|------------------0----0--2----2--|
----------2----2------------------|----------2----2------------------|
--0----0--------------------------|--0----0--------------------------|
----------------------------------|----------------------------------|


  Q    E  Q    E  Q    E  Q    E     Q    E  Q    E  Q    E  Q    E   
------------------0----0--2----2--|----------2----2--5----5--7----7--|
----------2----2------------------|--0----0--------------------------|
--0----0--------------------------|----------------------------------|
----------------------------------|----------------------------------|


  Q    E  Q    E  Q    E  Q    E     Q    E  Q    E  Q    E  Q    E   
----------2----2--5----5--7----7--|------------------0----0--2----2--|
--0----0--------------------------|----------2----2------------------|
----------------------------------|--0----0--------------------------|
----------------------------------|----------------------------------|


  Q    E  Q    E  Q    E  Q    E     Q    E  Q    E  Q    E  Q    E   
------------------0----0--2----2--|----------------------------------|
----------2----2------------------|------------------0----0--2----2--|
--0----0--------------------------|----------2----2------------------|
----------------------------------|--0----0--------------------------|


  Q    E  Q    E  Q    E  Q    E     Q    E  Q    E  Q    E  Q    E   
----------2----2--5----5--7----7--|------------------0----0--2----2--|
--0----0--------------------------|----------2----2------------------|
----------------------------------|--0----0--------------------------|
----------------------------------|----------------------------------|


  W                H           Q    E  Q    E  Q    E  Q    E   
----------------------------|------------------0----0--2----2--|
----------------------------|----------2----2------------------|
--0----------------L--------|--0----0--------------------------|
----------------------------|----------------------------------|


  Q    E  Q    E  Q    E  Q    E     Q    E  Q    E  Q    E  Q    E   
------------------0----0--2----2--|------------------0----0--2----2--|
----------2----2------------------|----------2----2------------------|
--0----0--------------------------|--0----0--------------------------|
----------------------------------|----------------------------------|


  Q    E  Q    E  Q    E  Q    E     Q    E  Q    E  Q    E  Q    E   
------------------0----0--2----2--|----------2----2--5----5--7----7--|
----------2----2------------------|--0----0--------------------------|
--0----0--------------------------|----------------------------------|
----------------------------------|----------------------------------|


  Q    E  Q    E  Q    E  Q    E     Q    E  Q    E  Q    E  Q    E   
----------2----2--5----5--7----7--|------------------0----0--2----2--|
--0----0--------------------------|----------2----2------------------|
----------------------------------|--0----0--------------------------|
----------------------------------|----------------------------------|


  Q    E  Q    E  Q    E  Q    E     Q    E  Q    E  Q    E  Q    E   
------------------0----0--2----2--|----------------------------------|
----------2----2------------------|------------------0----0--2----2--|
--0----0--------------------------|----------2----2------------------|
----------------------------------|--0----0--------------------------|


  Q    E  Q    E  Q    E  Q    E     Q    E  Q    E  Q    E  Q    E          
----------2----2--5----5--7----7--|------------------0----0--2----2--|-----||
--0----0--------------------------|----------2----2------------------|-----||
----------------------------------|--0----0--------------------------|-----||
----------------------------------|----------------------------------|-----||




Duration Legend
---------------
W - whole
H - half
Q - quarter
E - 8th
S - 16th
T - 32nd
X - 64th
. - note dotted
|-n-|  - n-tuplets


Tablature Legend
----------------
L - tied note
x - dead note
g - grace note
(n) - ghost note
> - accentuded note
NH - natural harmonic
AH - artificial harmonic
TH - tapped harmonic
SH - semi harmonic
PH - pitch harmonic
h - hammer on
p - pull off
b - bend
br - bendRelease
pb - preBend
pbr - preBendRelease
brb - bendReleaseBend
\n/ - tremolo bar dip
\n - tremolo bar dive
-/n - tremolo bar Release up
/n\ - tremolo bar inverted dip
/n - tremolo bar return
-\n - tremolo bar Release down
S - shift slide
s - legato slide
/ -  slide into from below or out of upwards
\ -  slide into from above or out of downwards
~ - vibrato
W - wide vibrato
tr - trill
TP - tremolo picking
T - tapping
S - slap
P - pop
< - fade in
^ - brush up
v - brush down

            
            
Suggest correction
Creating personal tab
Creating personal tab
You can edit any tab online and save it as your Personal.

You can edit, replace or remove any tab part or add personal notes – all changes will be seen only by you.

Personal tabs can be accessed anytime from any device, even offline.
Learn more »
Give kudos to tab author, rate the tab!
1 2 3 4 5
comments
print report bad tab
1 comment total.
0 reply
lynnkrois 10 Jun 20, 2014 07:00 AM

didn't like this contribution

guest
You may want to rate the tab now too:
select rating
Wanna post a correction for this tab? Suggest correction