Oops, an error
Loading. Please wait.

Superstition Live tab

50,724 views 78 this week
4 commentsread comments
1 2 3 4 5
x 4
add to favorites
×
Save as Personal and add changes to this tab that will be seen only by you. Learn more ›
×
You can save this tab as Personal to edit and correct it or add notes. All changes will be seen only by you. Learn more »
launch autoscroll
font size
0
reset
how to read this tab
guitar tuner
edit
Autoscroll
slow
fast
+/-
esc
set tempo
stop
                               SUPERSTITION (Live)
                        As recorded by Stevie Ray Vaughan
                        (From the 1986 Album LIVE ALIVE)

Words and Music by Stevie Wonder
Transcribed by Dave Whitehill

Gtr I (Eb Ab Db Gb Bb Eb) - 'Stevie Ray Vaughan'
Gtr II (Eb Ab Db Gb Bb Eb) - 'Keyboard arranged for guitar'


[Intro]

  Medium Funk Q=110
                                 Em7
 4/4
     Gtr I
  Q  S S S S S S   S S S S S S   E  E  S  S S S  S  S S  S S S  E
D#|------------------------------|------------------------------------|
A#|------------------------------|---12---------0---------------------|
F#|----x-x-x-x-x-x---x-x-x-x-x-x-|---12----12-x-0-12-12---12-----12---|
C#|------------------------------|---12----12-x---12-12---12-----12---|
G#|------------------------------|----------------------x------x------|
D#|------------------------------|-0----------------------------------|
  |
  |    Gtr II
  | H          S S a E   E   S S   E  E  E    s S  E    S  S S S  S S
D#|------------------------------|------10----7-----------------------|
A#|------------------------------|------10------7--8----7-------------|
F#|----------------------7---9p7-|-9-----------------------9----------|
C#|--------------7-7h9-----------|---------------------------9----7-9-|
G#|------------------------------|-----------------------------9------|
D#|------------------------------|------------------------------------|


    S  S  S  S S  S S S E S S +S  S S S
D#|---------------------3---2-(2)----------|
A#|-----------------x---3---2-(2)---2p0----|
F#|---12-12------12-x---2---2-(2)---2p0----|
C#|---12-12-12---12---2---2-------2--------|
G#|----------------------------------------|
D#|----------------------------------------|
  |
  | E     E    E    E   E E    E    E
D#|----------------------------------------|
A#|----------------------------------------|
F#|------------7----9----------------------|
C#|-7-----9----7----9---5------------------|
G#|-----------------------5----7----5------|
D#|-5-----7--------------------------------|


    E  E   S  S S S  S  S S  S S S  E     E  S  S E S S E   S S +E    E
D#|-------------------------------------|---------------3-----2-(2)p==0---|
A#|---12----------0---------------------|-----------0-0-3-----2-(2)p==0---|
F#|---12-----12-x-0-12-12---12-----12---|---12-12---0-0-2-----2-(2)p==0---|
C#|---12-----12-x---12-12---12-----12---|---12-12-------------------------|
G#|-----------------------x------x------|---------------------------------|
D#|-0-----------------------------------|---------------------------------|
  |
  | E  S S E    E    E    S  S S S  S S   E  E    E E   S S S S  S  S S S
D#|-------------------------------------|---------------------------------|
A#|------------------8----7-------------|---------------8-----------------|
F#|----9---7----9------------9----------|---------7-9-----9-7----7----7-9-|
C#|----9-9-7----9--------------9----7-9-|-7--9----7-9---------9-----9-----|
G#|-7----9-----------------------9------|---------------------------------|
D#|-------------------------------------|-5--7----------------------------|


    E  S  S S  S S S S S S  S S S  S  S
D#|-----------------------------0-14-12--|
A#|---12-12---12-------0-0-14-----14-12--|
F#|---12-12---12-x-x---0-0-14-----14-12--|
C#|---12---------------------------------|
G#|--------------------------------------|
D#|-0------------------------------------|
  |
  | E  S  S E    E   E   S  S S S  S  S
D#|--------------------------------------|
A#|------------------8---7---------------|
F#|----9----7----9----------9------------|
C#|----9--9-7----9------------9----7--9--|
G#|-7-----9---------------------9--------|
D#|--------------------------------------|


     +E   E Q    S S S  S  +S  S  S  S
D#|-(12)\------------------------------|
A#|-(12)\------------------------12-12-|
F#|-(12)\-------12-----12-(12)---12-12-|
C#|-------------12-x-x-12-(12)-x-12----|
G#|------------------------------------|
D#|------------------------------------|
  |
  |   E   E E E  S S S  S   S  S  S  S
D#|------------------------------------|
A#|--------------8---------------------|
F#|---------7-9----9-7------7-----7--9-|
C#|---7---9-7-9---------9------9-------|
G#|------------------------------------|
D#|---5---7----------------------------|


    E  E   S  S  S  S  S  S  S  S  S  S  S  S   E  S  S S S E H
D#|-------------------14-12-14-12-14-12-------|-----------0--------------------||
A#|---12-----12-------14-12-14-12-14-12-------|---12------0--------------------||
F#|---12-----12-------14-12-14-12-14-12-------|---12-12---0--------------------||
C#|---12--------14-14-------------------14-12-|--------------------------------||
G#|-------------------------------------------|--------------------------------||
D#|-0-----------------------------------------|--------------------------------||
  |
  | E  S S E     E     E     S  S  S  S  S  S   E  E    E   E S S S S S S S S
D#|-------------------------------------------|--------------------------------||
A#|--------------------8-----7----------------|---------------8----------------||
F#|----9---7-----9--------------9-------------|---------7---9---9-7-------7-9--||
C#|----9-9-7-----9-----------------9-----7--9-|-7--9----7---9-------9-7---7-9--||
G#|-7----9----------------------------9-------|-------------------------9------||
D#|-------------------------------------------|-5--7---------------------------||


[Verse 1,2,3]

      $
       S S  S S  E S S  S S S  S  S   S  S  S
D#|------------------------------------------|
A#|o------------------12-----12--------------|
F#|-------12---12-----12-----12-----12-12-12-|
C#|-------12---12-x-x----x-x-----------12-12-|
G#|o----x----x-------------------------------|
D#|--12--------------------------------12-12-|
  |
  |    E    S S  E e    E   S  S +S   S  S  S
D#|------------------------------------------|
A#|o-------------------8---------------------|
F#|--------9----7-9----7---9--7-(7)----------|
C#|--------9-9--7-9---------------------7--9-|
G#|o--7------------------------------9--7--9-|
D#|------------------------------------------|


    S  S S S  S  S S S  S  S S S  S  S S S    S S  S S  E S S  S S S  S  S   S  S  S
D#|----------------------------------------|------------------------------------------|
A#|----------------------------------------|------------------12-----12---------------|
F#|---12-----12-12-----12-12-----12-12-----|------12---12-----12-----12-----12-12-12--|
C#|---12-x-x-12-12-x-x-12-12-x-x-12-12-x-x-|------12---12-x-x----x-x-----------12-12--|
G#|----------------------------------------|----x----x--------------------------------|
D#|----------------------------------------|-12--------------------------------12-12--|
  |
  | E    E    E    E    S  S S S  S  S S S    E    S S  E e    E   S  S +S   S  S  S
D#|----------------------------------------|------------------------------------------|
A#|---------------------8------------------|-------------------8----------------------|
F#|-----------7----9-------9-7---------7-9-|-------9----7-9----7---9--7-(7)-----------|
C#|-7----9----7----9-----------9--7----7-9-|-------9-9--7-9---------------------7--9--|
G#|----------------------------------9-----|--7------------------------------9--7--9--|
D#|-5----7---------------------------------|------------------------------------------|


    S  S S S  S  S S S  S  S S S  S  S S S    S S  S S  E S S  S S S  S  S   S  S  S
D#|----------------------------------------|-----------------------------------------|
A#|----------------------------------------|------------------12-----12--------------|
F#|---12-----12-12-----12-12-----12-12-----|------12---12-----12-----12-----12-12-12-|
C#|---12-x-x-12-12-x-x-12-12-x-x-12-12-x-x-|------12---12-x-x----x-x-----------12-12-|
G#|----------------------------------------|----x----x-------------------------------|
D#|----------------------------------------|-12--------------------------------12-12-|
  |
  | E    E    E    E    S  S S S  S  S S S    E    S S  E E    E   S  S +S   S  S  S
D#|----------------------------------------|-----------------------------------------|
A#|---------------------8------------------|-------------------8---------------------|
F#|-----------7----9-------9-7---------7-9-|-------9----7-9----7---9--7-(7)-----7--9-|
C#|-7----9----7----9-----------9--7----7-9-|-------9-9--7-9------------------9--7--9-|
G#|----------------------------------9-----|--7--------------------------------------|
D#|-5----7---------------------------------|-----------------------------------------|


    S  S S S  S  S S S  S  S S S  S  S S S
D#|-----------------------------------------|
A#|-----------------------------------------|
F#|---12-----12-12-----12-12-----12-12------|
C#|---12-x-x-12-12-x-x-12-12-x-x-12-12-x-x--|
G#|-----------------------------------------|
D#|-----------------------------------------|
  |
  | E    E    E    E    S  S S S  S  S S S
D#|-----------------------------------------|
A#|---------------------8-------------------|
F#|-----------7----9-------9-7---------7-9--|
C#|-7----9----7----9-----------9--7----7-9--|
G#|----------------------------------9------|
D#|-5----7----------------------------------|


     S S  S S  E S S  S S S  S  S   S  S  S   S  S S S  S  S S S  S  S S S  S  S S S
D#|-----------------------------------------|----------------------------------------|
A#|------------------12-----12--------------|----------------------------------------|
F#|------12---12-----12-----12-----12-12-12-|---12-----12-12-----12-12-----12-12-----|
C#|------12---12-x-x----x-x-----------12-12-|---12-x-x-12-12-x-x-12-12-x-x-12-12-x-x-|
G#|----x----x-------------------------------|----------------------------------------|
D#|-12--------------------------------12-12-|----------------------------------------|
  |
  |  E    S S  E E    E   S  S +S   S  S  S   E    E    E    E    S  S S S  S  S S S
D#|-----------------------------------------|----------------------------------------|
A#|-------------------8---------------------|---------------------8------------------|
F#|-------9----7-9----7---9--7-(7)-----7--9-|-----------7----9-------9-7---------7-9-|
C#|-------9-9--7-9------------------9--7--9-|-7----9----7----9-----------9--7----7-9-|
G#|--7--------------------------------------|----------------------------------9-----|
D#|-----------------------------------------|-5----7---------------------------------|


     S S  S S  E   S S  S S S  S  S   S  S  S
D#|--------------------------------------------|
A#|--------------------12-----12---------------|
F#|------12---12-------12-----12-----12-12-12--|
C#|------12---12---x-x----x-x-----------12-12--|
G#|----x----x----------------------------------|
D#|-12----------------------------------12-12--|
  |
  |  E    S S  S E   S  S S S  S +S   S  E
D#|--------------------------------------------|
A#|--------------------------------------------|
F#|-------9----7-9-------------7-(7)-----9-----|
C#|-------9-9--7-9---9--5h7-9---------9--------|
G#|--7------9----------------------------------|
D#|--------------------------------------------|


    S  S S S  S  S  S S  S  S S S  S  S S S
D#|-----------------------------------------|
A#|-----------------------------------------|
F#|---12-----12-12------12-12-----12-12-----|
C#|---12-x-x-12-12--x-x-12-12-x-x-12-12-x-x-|
G#|-----------------------------------------|
D#|-----------------------------------------|
  |
  | E    S S  S  E.      S  S S S  E    S S
D#|----------------------6h=7---------------|
A#|---------------------------7h8-----------|
F#|------9----7--9-----------------9----7-9-|
C#|--------9--------------------------------|
G#|-----------------------------------------|
D#|-----------------------------------------|


     S S  S S  E   S S  S S S  S  S   S  S  S   S  S S S  S  S  S S  S  S S S  S  S S S
D#|-------------------------------------------|-----------------------------------------|
A#|--------------------12-----12--------------|-----------------------------------------|
F#|------12---12-------12-----12-----12-12-12-|---12-----12-12------12-12-----12-12-----|
C#|------12---12---x-x----x-x-----------12-12-|---12-x-x-12-12--x-x-12-12-x-x-12-12-x-x-|
G#|----x----x---------------------------------|-----------------------------------------|
D#|-12----------------------------------12-12-|-----------------------------------------|
  |
  |  E    S S  S E   S  S S S  S +S   S  E      E    S S  S  E.      S  S S S  E    S S
D#|-------------------------------------------|----------------------6h=7---------------|
A#|-------------------------------------------|---------------------------7h8-----------|
F#|-------9----7-9-------------7-(7)-----9----|------9----7--9-----------------9----7-9-|
C#|-------9-9--7-9---9--5h7-9---------9-------|--------9--------------------------------|
G#|--7------9---------------------------------|-----------------------------------------|
D#|-------------------------------------------|-----------------------------------------|


     S S  S S  E   S S  S S S  S  S   S  S  S
D#|-------------------------------------------|
A#|--------------------12-----12--------------|
F#|------12---12-------12-----12-----12-12-12-|
C#|------12---12---x-x----x-x-----------12-12-|
G#|----x----x---------------------------------|
D#|-12----------------------------------12-12-|
  |
  |  E    S S  S E   S  S S S  S +S   S  E
D#|-------------------------------------------|
A#|-------------------------------------------|
F#|-------9----7-9-------------7-(7)-----9----|
C#|-------9-9--7-9---9--5h7-9---------9-------|
G#|--7------9---------------------------------|
D#|-------------------------------------------|


    S  S S S  S  S  S S  S  S S S  S  S S S
D#|-----------------------------------------|
A#|-----------------------------------------|
F#|---12-----12-12------12-12-----12-12-----|
C#|---12-x-x-12-12--x-x-12-12-x-x-12-12-x-x-|
G#|-----------------------------------------|
D#|-----------------------------------------|
  |
  | E    S S  S  E.      S  S S S  E    S S
D#|----------------------6h=7---------------|
A#|---------------------------7h8-----------|
F#|------9----7--9-----------------9----7-9-|
C#|--------9--------------------------------|
G#|-----------------------------------------|
D#|-----------------------------------------|


     S S  S S  E   S S  S S S  S  S   S  S  S
D#|-------------------------------------------|
A#|--------------------12-----12--------------|
F#|------12---12-------12-----12-----12-12-12-|
C#|------12---12---x-x----x-x-----------12-12-|
G#|----x----x---------------------------------|
D#|-12----------------------------------12-12-|
  |
  |  E    S S  S E   S  S S S  S +S   S  E
D#|-------------------------------------------|
A#|-------------------------------------------|
F#|-------9----7-9-------------7-(7)-----9----|
C#|-------9-9--7-9---9--5h7-9---------9-------|
G#|--7------9---------------------------------|
D#|-------------------------------------------|


    S  S S S  S  S  S S  S  S S S  S  S S S
D#|-----------------------------------------||
A#|-----------------------------------------||
F#|---12-----12-12------12-12-----12-12-----||
C#|---12-x-x-12-12--x-x-12-12-x-x-12-12-x-x-||
G#|-----------------------------------------||
D#|-----------------------------------------||
  |
  | E    S S  S  E.      S  S S S  E    E
D#|----------------------6h=7---------------||
A#|---------------------------7h8-----------||
F#|------9----7--9-----------------9--------||
C#|--------9--------------------------------||
G#|-----------------------------------------||
D#|-----------------------------------------||


[Chorus]

    B7         C7+11        B7          Bb9+11
    Gtr II
    E S S +Q   E S S +Q     E S S +E  E E S S +E  E
D#|-----------------------|-------------------------|
A#|-7---7-(7)--7---7-(7)--|-7---7-(7)---5---5-(5)---|
F#|-8---8-(8)--9---9-(9)--|-8---8-(8)---5---5-(5)---|
C#|-7-7-7-(7)--8-8-8-(8)--|-7-7-7-(7)-7-6-6-6-(6)-6-|
G#|-----------------------|-------------------------|
D#|-----------------------|-------------------------|


[Coda]

    A9                      B+
    E S S S E S S E S E e   S S e Q  E S S S S S S
D#|-----3-----3-----------|-7-7-7-------------------|
A#|-5---5---5-5---5-5-3-5-|-8-8-8-------------------|
F#|-4---------------------|-8-8-8------------7-8-9--|
C#|-5-5-----5-----5-5-4-5-|-9-9-9------7-8-9--------|
G#|-----------------------|-------------------------|
D#|-----------------------|-------------------------|


    1.
    Em7
    Gtr I
    H         E.    S  S  S  S  S   S  S S  S  E.   S S e    S  Q
D#|-------------------------------|---------------------0---------------|
A#|----------------------------12-|-----------12------0-0---------------|
F#|----------------12-------12-12-|---12---12-12----x-0--------12-------|
C#|----------------12-----x-12-12-|---12-x-12-12----x-------12-12-------|
G#|-------------------------------|-------------------------------------|
D#|-----------0-------------------|-------------------------------------|
  |
  | Gtr II
  | E S S E e E  S  S +S  S  S  S   E    E     E  E   S S S  S  S S S S
D#|-------------------------------|-------------------------------------|
A#|-----------8-------------------|-------------------8-----------------|
F#|---9---7-9-7--9--7-(7)---------|------------7--9-----9-7---------7-9-|
C#|---9-9-7-9----------------7--9-|-7----9-----7--9----------9--7---7-9-|
G#|-7---------------------9--7--9-|-------------------------------9-----|
D#|-------------------------------|-5----7------------------------------|


    Q      E E S  E.      Q           S  S  S  S  Q    Q        E    E
D#|--------------------------------|----------------------------------------||
A#|--------------12----------------|---------------------------------------o||
F#|-------12-----12----------------|----------------------------------------||
C#|-------12-------------12--------|-14-12----------------------------------||
G#|--------------------------------|-------14-13-12---10-------------------o||
D#|-0------------------------------|---------------------------10---11------||
  |
  | E S S  E e E     S S +S  S S S    E     E     E E  S S S S  S S  S S
D#|--------------------------------|----------------------------------------||
A#|------------8-------------------|-------------------8-------------------o||
F#|---9----7-9-7-----9-7-(7)-------|--------------7-9----9-7---------7-9----||
C#|---9-9--7-9-----------------7-9-|--7-----9-----7-9--------9--7----7-9----||
G#|-7------------------------9-7-9-|------------------------------9--------o||
D#|--------------------------------|--5-----7-------------------------------||


    2.
    Em7
    Q      Q    +Q.            E      +S   S  S  S  E.    S S S S S  S  S  S  S
D#|--------------------------------|--------------------------------14-14-14-14-|
A#|--------------------------------|---------------12----12---------14-14-14-14-|
F#|-------12---(12)-----------12---|-(12)-12-12-12-12----12---x-x-x-14-14-14-14-|
C#|-------12---(12)-----------12---|-(12)-12-12-12-12----12---x-x-x-------------|
G#|--------------------------------|--------------------------------------------|
D#|--------------------------------|--------------------------------------------|
  |
  | E S S  E e   E  S S +S  S  S S     E      E     E  E    S S S S  S  S  S  S
D#|--------------------------------|--------------------------------------------|
A#|--------------8-----------------|------------------------8-------------------|
F#|---9----7-9---7--9-7-(7)--------|----------------7--9------9-7----------7--9-|
C#|---9-9--7-9-----------------7-9-|---7------9-----7--9----------9--7-----7--9-|
G#|-7-----------------------9--7-9-|------------------------------------9-------|
D#|--------------------------------|---5------7---------------------------------|


                                                           D.S. al Coda
     E       S S  S S S  S S S S S  S  S S S   H       H
D#|-12---------------------------------------|---------------------------||
A#|-12-----------------------0-2p0--2p=0---0-|---------------------------||
F#|-12b12.5----x-12-----12---0-2p0--2p=0---0-|---------------------------||
C#|---------14-x-12-x-x-12---------------2---|---------------------------||
G#|------------------------------------------|---------------------------||
D#|------------------------------------------|-0-------------------------||
  |
  |  E       S S  E   e    E   S S +S  S S S   E E E E S S S S S S S S
D#|------------------------------------------|---------------------------||
A#|------------------------8-----------------|---------8-----------------||
F#|----------9----7---9----7---9-7-(7)-------|-----7-9---9-7-------7-9---||
C#|----------9-9--7---9------------------7-9-|-7-9-7-9-------9-7---7-9---||
G#|--7---------------------------------9-7-9-|-------------------9-------||
D#|------------------------------------------|-5-7-----------------------||


    &
    Em7
                                        ~~~~~~~~~
    Q     E  E  H                 E  E  Q    +E     S  S  S  S  S     +S
D#|---------17\-----------------|------12---(12)---12----12---------------||
A#|---------17\-----------------|---15----------------12----12------------||
F#|-----------------------------|------------------------------14b15r(14)-||
C#|-----------------------------|-----------------------------------------||
G#|-----------------------------|-----------------------------------------||
D#|-----------------------------|-----------------------------------------||
  |
  | E S S E  e  E S S +S  S S S   E  E  E E   S  S  S  S  S  S  S      S
D#|-----------------------------|-----------------------------------------||
A#|-------------8---------------|-------------8---------------------------||
F#|---9---7--9--7-9-7-(7)-------|-------7-9------9--7-----------7------9--||
C#|---9-9-7--9--------------7-9-|-7--9--7-9------------9--7-----7------9--||
G#|-7---------------------9-7-9-|----------------------------9------------||
D#|-----------------------------|-5--7------------------------------------||


[Solo]

    Em7
    Gtr I
     S  S  S  S      +S    S S S S S S S E E
D#|----------------------------------------0-|
A#|----------------------------0-2p0-------0-|
F#|-12----12-14b16==(14)r\-0-2-0-2p0---------|
C#|----14----------------------------2-0-----|
G#|------------------------------------------|
D#|--------------------------------------0---|


    +Q   +E. S    +S   S S   S S S S S
D#|-(0)--(0)---------------------------|
A#|-(0)--(0)-----------0-----0-2-------|
F#|----------2b4==(2)r-0-2b4---2p0-----|
C#|--------------------------------2p0-|
G#|------------------------------------|
D#|------------------------------------|


    S   +S  T S S   +S  T S S S   S S   S S S S S
D#|-----------------------------------------------|
A#|-------------------------------0-----0---------|
F#|-2b3r(2)p0---2b3r(2)p0---0-2b4---2b4---2-0---0-|
C#|-----------2-----------2-------------------2---|
G#|-----------------------------------------------|
D#|-----------------------------------------------|


    E E S E S    +S   S S S S S S S
D#|---0---0-2b3==(2)r-0---------0---|
A#|-----3-0-2b3==(2)r-0-3-----0---0-|
F#|-0---2-----------------2s4-------|
C#|---------------------------------|
G#|---------------------------------|
D#|---------------------------------|


    a E S S S S S S S E S S S S S   S S S S S S S S  a  S  S  S  S S S a S S
D#|-----0-----0-------------------|---7-7-7-7-7-7-7-------10--9--9-7-7--------|
A#|-----0-----0-----0-2-0-2p0-----|---8-8-8-8-8-8-8-10h12-12-10-10-8-8--------|
F#|-2s4---2s4---2s4-0-2-0-2p0---0-|------------------------------------9s2p0--|
C#|---------------------------2-0-|-------------------------------------------|
G#|-------------------------------|-------------------------------------------|
D#|-------------------------------|-------------------------------------------|


    S S S S E E +E  S S S   +S  S S   E S S S S S S S S S S S S S S
D#|-----------0-(0)-----------------|-------------------------------|
A#|-----------0-(0)-3-0-------------|-------------------------------|
F#|-2p0-----------------2b4r(2)-0---|-------------------------------|
C#|-----2p0-----------------------2-|-2---2-----2-----2---0-0-2-2-2-|
G#|---------------------------------|-------------------------------|
D#|---------0-----------------------|---0---0-0---0-0---0-----------|


    S S   +S  S S S S S S S S S S S S S
D#|-------------------------------------|
A#|-------------------------3-----3-----|
F#|-0-2b3r(2)-0-2p0---0-2-4---3h4---2-0-|
C#|-----------------2-------------------|
G#|-------------------------------------|
D#|-------------------------------------|


    S S S S E  S  S  +E        S  S  S  S  S  S
D#|-----------14-12-(12)b12.5-------------------|
A#|-----------14-12-(12)b12.5-------14-12-------|
F#|-2p0-------14-12-(12)b12.5----12-14-12-------|
C#|-----2-0-------------------14----------14p12-|
G#|---------------------------------------------|
D#|---------0-----------------------------------|


    S S  E     S  S  S  S     +S   S  S  S  S  S       S  S
D#|-----------12-12-12--------------------------------------|
A#|-----15b17-------12---------------------14---------------|
F#|--------------------14b16r(14)-12-------14-12b12.5-------|
C#|----------------------------------14p12------------14-12-|
G#|-0-0-----------------------------------------------------|
D#|---------------------------------------------------------|


    S  E     S  E     S  E     S  E  S  E     S
D#|---------12-------12-------12----12-------12-|
A#|---------12-------12-------12-12-12-------12-|
F#|---14b16----14b16----14b16----------14b16----|
C#|---------------------------------------------|
G#|---------------------------------------------|
D#|---------------------------------------------|


     E    S S S  E     S E S  S     +S   S S S
D#|-------------------12----------------12-----|
A#|-------------------12----------------12-----|
F#|-14b16-------14b16--------14b16-(14)--------|
C#|----------------------0----x----------------|
G#|---------0-0----------0-0-----------------0-|
D#|-------0-0-0----------0-----------------0-0-|


    S  E     S E.  S     +S   S  S     S  S  S  S  S
D#|---------12---------------12-------12-------------|
A#|---------12---------------12-------12-14-12-------|
F#|---14b16-------14b16-(14)----14b16----14-12-------|
C#|-0----------0-------------------------------14-12-|
G#|-0------------------------------------------------|
D#|--------------------------------------------------|


                                      ~~
     E  E  S  S  T  T  S  S  S  S  S  E  S S
D#|-15-12----12------------------------------|
A#|-15-12-15-12-15s14-12-------------------0-|
F#|-------15----15s14-12-14----------------0-|
C#|----------------------14-12---------------|
G#|----------------------------14-13-12-10---|
D#|------------------------------------------|


     S  S  S  S  +S   S  S  S  S  S  S  S  S  S  S  S
D#|---------------------------------------------------|
A#|----------14-(14)----------------------------------|
F#|----------14-(14)-12-------------------------------|
C#|-12h14---------------14-12----12-14----12-14-12-14-|
G#|---------------------------14-------14-------------|
D#|-------12------------------------------------------|


    E  S S  S  S S S  S E  S  +E        S  S
D#|---15---15-15-----16---15-(15)b15.5-12-12-|
A#|---15---15-15-0---15---14-(14)b14.5-12-12-|
F#|------0-------0-0-------------------------|
C#|------------------------------------------|
G#|------------------------------------------|
D#|-0----------------------------------------|


     +S   S   S  S  S  E  S  E  S  S  +E   S  S
D#|-(12)-12-----------------------12-(12)-------|
A#|-(12)-12-/15-15-15-15-15-14----12-(12)-------|
F#|---------/16-16-16-16----14----12-(12)-------|
C#|----------------------------14---------12-13-|
G#|---------------------------------------------|
D#|---------------------------------------------|


                                       ~~~~~~~~~~~~~~~~~~~~~~~~~~~~~~~~~~~~
               |--3--|
   S  S  S  S  S  S  S  S S  S  E S S  E  S    +Q    E.  S  +E   E  +S   E S
D#|-------------------------------------------|--------------------------------|
A#|-------------------------------------17-17-|-(17)--17--17-(17)-17-(17)-17---|
F#|-------------------------------------------|------------------------------0-|
C#|-14-12---------------------12-14-----------|------------------------------0-|
G#|-------14-13-12h13p12----------------------|--------------------------------|
D#|----------------------15-0-------0-0-------|--------------------------------|


    E  S  S  S  S  S S  S S S  S  +E        S  S
D#|---15----15-15s10---15-----15-(15)b15.5-12-12-|
A#|---15-15-15-15----0-14-0---14-(14)b14.5-12-12-|
F#|-0-----0----------0----0-x--------------------|
C#|-0--------------------------------------------|
G#|----------------------------------------------|
D#|----------------------------------------------|


     +S   S  S     S  S  S  S  S  S  S E S S S S
D#|-(12)-12-------12-----------------0-----------|
A#|-(12)-12-------12-------------------0-2-0-----|
F#|---------14b16----14-12-------------0-2-0---0-|
C#|------------------------14-12-10/---------2-0-|
G#|----------------------------------------------|
D#|----------------------------------------------|


    E S S S S S S S S S S +S  T T S   +T  T   E S S S S S S S S S S S S S S
D#|---------3-----3-----3-(3)---------------|---3-----3-------3-3---3---3-3-|
A#|---------3-----3-----3-(3)-0-2-----------|---3---2-3-------3-3---3-3-3-3-|
F#|-------------------------------2b4r(2)p0-|-------2-----------------------|
C#|-----------------------------------------|-------2-------2-----2---------|
G#|---0h2-----------------------------------|-----0-------------------------|
D#|-0-----0---0-0---0-0---------------------|-0---------0-0-----------------|


    S S S S S S S S S S S S S S S S   S S S S S S S S S S S S S S S S
D#|---3-----3-----3-------3-----3-3-|---3-----3-----3-------3-----3-3-|
A#|---3-x-x-3-x-x-3-x-x---3-x-x-3-3-|---3-x-x-3-x-x-3-x-x---3-x-x-3-3-|
F#|-----x-x---x-x---x-x-----x-x-----|-----x-x---x-x---x-x-----x-x-----|
C#|-x-------------------x-----------|-x-------------------x-----------|
G#|---------------------------------|---------------------------------|
D#|---------------------------------|---------------------------------|


    S S S S S S S S S S S S S S S S
D#|---3-----3-----3-------3-----3-3-|
A#|---3-x-x-3-x-x-3-x-x---3-x-x-3-3-|
F#|-----x-x---x-x---x-x-----x-x-----|
C#|-x-------------------x-----------|
G#|---------------------------------|
D#|---------------------------------|


    S   +T  T S S   +T  T S S   +T  T S E S S S S S
D#|-------------------------------------------------|
A#|-------------------------------------------------|
F#|-2b4r(2)p0---2b4r(2)p0---2b4r(2)p0---2-0-2-0-----|
C#|-----------2-----------2-----------2---------2-0-|
G#|-------------------------------------------------|
D#|-------------------------------------------------|


    E E S S S S E S S +E  S S   E S S S E. +S  S S S E. S
D#|-----------------0-(0)-----|----------------------------|
A#|---3---3-----3---0-(0)-0-0-|----------------------------|
F#|---2---2-----2---2-(2)-2---|-2---2---2--(2)-2-2-2-2-----|
C#|---------1-----1-1-(1)-----|-1-1-1---1--(1)-1-1-1-1-----|
G#|-2-------2-2---2-----------|-2-----2--------------------|
D#|-----2-----2---------------|-------------------------2s=|


    S S S S S  E. S S S S E S S   S  S  S  S  S  S S  S S  S  S  S  E   e
D#|---7-7-7-7\------7-7---7-----|---14---------------19---19-19-19-19\----|
A#|---7-7-7-7\----7-7-7-7-7-7-0-|---15-15-15-15-15-x-19---19-19-19-19\----|
F#|------------0--------7---7---|-----------------------------------------|
C#|------------0----------------|--------------------------------------14-|
G#|-----------------------------|-----------------------------------------|
D#|-7---------------------------|-----------------------------------------|


     S  S  S  S  +E.   S  +S  S e Q
D#|-15-15----15-(15)\-10-(10)sx-x-----*|
A#|-15-15----15-(15)\-----------------*|
F#|-----------------------------------*|
C#|-------14--------------------------*|
G#|-----------------------------------*|
D#|-----------------------------------*|



************************************

| x    Dead note
| p    Pull-off
| h    Hammer-on
| (n)  Ghost note
| b    Bend
| \    Slide down
| s    Slap
| /    Slide up
| *    Natural harmonic

************************************

            
            
Suggest correction
Creating personal tab
Creating personal tab
You can edit any tab online and save it as your Personal.

You can edit, replace or remove any tab part or add personal notes – all changes will be seen only by you.

Personal tabs can be accessed anytime from any device, even offline.
Learn more »
comments
print report bad tab
4 comments total. Showing first comments.
-2 reply
dwarfcar21 441 Dec 26, 2008 12:44 PM

SRV was a 3 man band he had a drummer bassist and himself but no 2nd guitar good tab though

0 reply
buckanderson 443 Apr 15, 2009 05:40 PM

the second guitar is supposed to be the keyboard

0 reply
Epiphone SG 2nd 20 Jul 13, 2009 12:46 PM

the em7 is actually supposed to be the hendrix chord (technically Em7add9 i think)

guest
Wanna post a correction for this tab? Suggest correction