Oops, an error
Loading. Please wait.

As bass

version 2
version 2

Whole song

Interactive

5,168 views 33 this week
no commentswrite comment
1 2 3 4 5
x 5
add to favorites
×
Save as Personal and add changes to this tab that will be seen only by you. Learn more ›
×
You can save this tab as Personal to edit and correct it or add notes. All changes will be seen only by you. Learn more »
launch autoscroll
font size
0
reset
guitar tuner
edit
Autoscroll
slow
fast
+/-
esc
set tempo
stop
Author
Difficulty
-------------------------------------------------------------------------------
                             AS - Stevie Wonder
-------------------------------------------------------------------------------

Tabbed By : Dave L.

Tuning:Standard
Key: Ebm
Resolution: 1/16
5-string is handy...
There are subtle differences in Verse A and Verse B
The first chorus does *not* have the 4646 hammer riff!
Try the intro and verses down a string and up 5 frets; easier for small hands.
I left off the nuances to keep the tab clean and timing tight.

  Intro                                                                 As  a-
G|--------|----------------|----------------|----------------|--------------4-|
D|--------|-----4----------|2-2------2-2--4-|----------------|2-2-----2-2224--|
A|--------|2-2---2-2----024|--------2-------|2-2-----2-2--024|-------2--------|
E|--------|----------------|----------------|-------2--------|----------------|

VERSE
 -round the sun...                                               just as
G|----------------|----------------|----------------|----------------|
D|-------4------2-|2-2-----2-2---4-|----------------|----------------|
A|2-2-----2-2-24-4|-------2--------|2-2---2----2--1-|0-------0-0-04--|
E|----------------|----------------|---------02-----|------02--------|

 hate knows...                                     1|always...
G|----------------|----------------|----------------|----------------|
D|------4-------2-|2-2-----2-2-2---|---66-----------|------------4---|
A|2-2-----2-2-24--|-------2-----2--|-------44--66--6|--------4-------|
E|----------------|--------------4-|4---------------|4-4-4-----------|

 'now every view...                                              just as     
G|----------------|--------------4-|----------------|----------------|
D|------4-------2-|2-2-----2-2-24-4|----------------|----------------|
A|2-2-----2-2-24-4|-------2--------|2-2---2-----2-1-|0-------0-0-04--|
E|----------------|----------------|----------02----|------02--------|

 all that's born...
G|----------------|----------------|----------------|
D|------4-------2-|2-2-----2-2-2---|---66-----------|
A|2-2-----2-2-24--|-------2-----2--|-------44--66--6|
E|----------------|--------------4-|4---------------|


CHORUS
2|always...                       always...
G|----------------|----------6---6-|----------------|----------6---6-|
D|--6--6-6--8---8-|--9--9-9--------|--6--6-6--8---8-|--9--9-9--------|
A|----------------|--------4---4---|----------------|--------4---4---|
E|4---4---6---6---|7---7-----------|4---4---6---6---|7---7-----------|

always...                        always...                    (free...)
G|----------------|----------6---6-|----------------|----------------|
D|--6--6-6--8---8-|--9--9-9--------|--6--6-6--8---8-|--9---9-93----3-|
A|----------------|--------4---4---|----------------|----------------|
E|4---4---6---6---|7---7-----------|4---4---6---6---|7---7-----1-----|


BRIDGE
    did you know that true love...
G|----------------|----------------|----------------|----------------|
D|------22-2------|----------------|-----22-2------2|0-0-----2-1-0---|
A|---22---------24|2-2-----2-2--2--|--22---------02-|-----025--------|
E|0----------0----|-----024----2-42|0---------------|----------------|

    did you know that life...
G|----------------|----------------|----------------|----------------|
D|------22-2------|----------------|----------------|------------4-4-|
A|---22---------24|2-2-----2-2--23-|4------44-4---5-|6-6-6-6-4-4-----| <- 2nd beat 4 str. only
E|0----------0----|-----024--------|---44-----------|----------------|
B|----------------|----------------|----------------|----4-4---------| <- original is on B string


VERSE
 just as time...                    seasons                     just as
G|----------------|----------------|----------------|----------------|
D|------4-------24|2-2-----2-2---4-|----------------|----------------|
A|2-2-----2-2-24--|-------2--------|2-2---2-----2-1-|0-------0-0-04--|
E|----------------|----------------|----------02----|------02--------|

 kindness...                                     1|always...
G|----------------|----------------|----------------|----------------|
D|------4-------2-|2-2-----2-2-2---|---66-----------|------------4---|
A|2-2-----2-2-24--|------2------2--|-------44--66--6|--------4-------|
E|----------------|--------------4-|4---------------|4---4-----------|

 as the day...   
G|----------------|----------------|----------------|----------------|
D|------4-------2-|2-2-----2-2---4-|----------------|----------------|
A|2-2-----2-2-24-4|-------2--------|2-2---2-----2-1-|0-------0-0-04--|
E|----------------|----------------|----------02----|------02--------|

 for i'll know...
G|----------------|----------------|----------------|
D|------4-------2-|2-2-----2-2-2---|---66-----------|
A|2-2-----2-2-24--|------2------2--|-------44--66--6|
E|----------------|--------------4-|4---------------|


CHORUS
2|always...                       always...
G|----------------|----------6-----|----------------|----------6-----|
D|--6---66---8--8-|--9---99------46|--6---66--8---8-|--9---99------46|
A|----------------|--------4---46--|----------------|--------4---46--|
E|4---4---6---6---|7---7-----------|4---4---6---6---|7---7-----------|

always...                         always...
G|----------------|----------6-----|
D|--6---66---8--8-|--9---99------46|  <-- Repeat 2 bars to end (about 64x)
A|----------------|--------4---46--|   Use the 4646 octave instead of the
E|4---4---6---6---|7---7-----------|   the 4646 riff once in a while. The drummer is the clue...

| /  slide up
| \  slide down
| h  hammer-on
| p  pull-off
| ~  vibrato
| +  harmonic
| x  Mute note
===============================================================================

            
            
Suggest correction
Creating personal tab
Creating personal tab
You can edit any tab online and save it as your Personal.

You can edit, replace or remove any tab part or add personal notes – all changes will be seen only by you.

Personal tabs can be accessed anytime from any device, even offline.
Learn more »
comments
print report bad tab
guest
You may want to rate the tab now too:
select rating
Wanna post a correction for this tab? Suggest correction