Oops, an error
Loading. Please wait.

As bass

version 1
version 1

Whole song

Interactive

5,339 views 3 this week
1 commentread comment
1 2 3 4 5
1 last vote to show rating
add to favorites
×
Save as Personal and add changes to this tab that will be seen only by you. Learn more ›
×
You can save this tab as Personal to edit and correct it or add notes. All changes will be seen only by you. Learn more »
launch autoscroll
font size
0
reset
guitar tuner
edit
Autoscroll
slow
fast
+/-
esc
set tempo
stop
Author
Difficulty
-------------------------------------------------------------------------------
			     AS - Steive Wonder
-------------------------------------------------------------------------------

Tabbed By : Superkisseler

Tuning:Standard

This is an awkword tab, it's very long, but I'm sure about it.


G|-4-4---4-4-4---4------------------4-4---4-4-4---4------------------------|
D|-----------------2-2------2-2---2------------------2-2-----2-2---2-------|
A|------------------------3--------------------------------3---------3-3---|
E|-------------------------------------------------------------------------|



G|---4-4---4------------------------4-4---4--2-2-----2-2-6--4-4------------|
D|-3---------2-2-----2-2---2------3-----------------2----------------------|
A|-----------------3---------3-3-------------------------------------------|
E|-------------------------------------------------------------------------|



G|---4-4---4----------------0---3----0-0---0-6---------------4-4---4-------|
D|-3---------2-2---2-2-2---2-------------------3-----------3---------2-2---|
A|----------------------------5---5------3----------3-3--------------------|
E|-------------------------------------------------------------------------|



G|-------------------------4-2-2----2-2-6--4-4----4-4---4------------------|
D|---2-2---2-------3-4-4----------2-------------3---------2-2---2-2-2------|
A|-3---------3-3-----------------------------------------------------------|
E|-------------------------------------------------------------------------|


G|---0---3----------------
D|-2---5---5--------------|
A|------------------------|
E|------------------------|


G|---0--0--0--0--4--4--6--6----------------------|
D|-----------------------------------------------|
A|-2--2--2--2--3--3--4--4------------------------|
E|-----------------------------------------------|         X3


G|---0--0--0--0--4--4--6--6------------------------------------------------|
D|---------------------------3--3------------------------------------------|
A|-2--2--2--2--3--3--4--4--------------------------------------------------|
E|-------------------------------------------------------------------------|



G|-------4-9/---4---4---4-4---4-------4-9/-----2-2---2-2---2---------------|
D|-2-2--------2-------3----------2-2---------2-----2-----------------------|
A|-------------------------------------------------------------------------|
E|-------------------------------------------------------------------------|


"Did you know that life has given..."
G|-------4-9/-----4---4---4-4---4--6-6---0---------------------------------|
D|-2-2---------2--------3----------------------------3-3--3----------------|
A|-----------------------------------------3-3-3-4-4-----------------------|
E|-------------------------------------------------------------------------|



G|----------------------------------4-4---4-4-4---4------------------------|
D|--------------------------------2------------------2-2-----2-2---2-------|
A|---------------------------------------------------------3---------3-3---|
E|-------------------------------------------------------------------------|



G|---4-4---4------------------------4-4---4--2-2-----2-2-6--4-4-----------|
D|-3---------2-2-----2-2---2------3-----------------2----------------------|
A|-----------------3---------3-3-------------------------------------------|
E|-------------------------------------------------------------------------|



G|---4-4---4----------------0---3----0-0---0-6----0--0-3-------------------|
D|-3---------2-2---2-2-2---2-----------------------------1-----------------|
A|----------------------------5---5------3---------------------------------|
E|-------------------------------------------------------------------------|




G|---0--0--0--0--4--4--6--6----------------------|
D|-----------------------------------------------|
A|-2--2--2--2--3--3--4--4------------------------|
E|-----------------------------------------------|       Until end

            
            
Suggest correction
Creating personal tab
Creating personal tab
You can edit any tab online and save it as your Personal.

You can edit, replace or remove any tab part or add personal notes – all changes will be seen only by you.

Personal tabs can be accessed anytime from any device, even offline.
Learn more »
Give kudos to tab author, rate the tab!
1 2 3 4 5
comments
print report bad tab
1 comment total.
0 reply
dr.dj.jabangway 10 Jun 22, 2010 06:03 PM

None of this seems to make sense. I have come to the conclusion that the problem could be one of 3 things or a combination of the 3 following points:
1. You are tabbing a different song.
2. You have not yet learnt how to write a tab.
3. You are tone deaf but thought you'd give it a shot anyway.

Please adapt this tab, it is the only attempt at tabbing this song.

guest
You may want to rate the tab now too:
select rating
Wanna post a correction for this tab? Suggest correction