Oops, an error
Loading. Please wait.
We have an official Sir Duke tab made by UG professional guitarists. Check out the tab »
×
6,375 views 9 this week
3 commentsread comments
1 2 3 4 5
x 3
add to favorites
×
Save as Personal and add changes to this tab that will be seen only by you. Learn more ›
×
You can save this tab as Personal to edit and correct it or add notes. All changes will be seen only by you. Learn more »
launch autoscroll
font size
0
reset
guitar tuner
backing track
0:00
0:00
edit
Autoscroll
slow
fast
+/-
esc
set tempo
stop
Author
Difficulty
---------------------------------------------------------------------------
			Sir Duke – Stevie Wonder
---------------------------------------------------------------------------

Tabbed By: MasterBlaster12
E-mail: taylor-cole@hotmail.co.uk

This is my first tab pretty sure it’s 100% apart from the last chorus where there
a load of crazy fills. Listen for timing
Enjoy.

Tuning: EADG

Intro – Bass comes in just before verse
G|----------------------------------------------------11p9-11--------------|
D|-------------------------------------------------------------4---2--1----|
A|----------------------------------------------------------------------4--|
E|-------------------------------------------------------------------------|

Verse
G|----4-----|----------|---------|------------|----4----|---------|----------|
D|--4---4---|----6-----|----5----|-----4-2-1--|--4---4--|----6----|----5-----|
A|2-------2-|--6---6---|--5---5--|---4-------4|2-------2|--6---6--|--5---5---|
E|----------|4-------4-|3-------3|2-----------|---------|4-------4|3-------3-|

G|---------5--|
D|-------3---3|
A|--4---------|
E|2---2-------|

Bridge
G|------------------------------------------------------|
D|2-2-1-1-0-0-----0-0-1-2-2----2-2-1-1-0-0-----0-1-2-3-4|
A|------------4-4--------------------------4-4----------|
E|------------------------------------------------------|

Chorus
G|----4-----|----5----|--4--------|--------------|
D|--4---4---|3-6---6-3|2---2---2-1|-------2-3-4-4|
A|2-------2-|---------|-----------|4-4--4--------|
E|----------|---------|-----------|--------------|

Crazy Run
G|---------------------------11-13-16--18-19-20|13----11--------------------|
D|--------------9---11-12-13-------------------|---13----11-13-11-9---------|
A|---------11-9--------------------------------|--------------------11-9----|
E|7---11-9-------------------------------------|----------------------------|

G|---------|8--6-4-6-4---4------|-----------------------|--------------4---4-|
D|11-9----9|-----------6---6-4-6|4---4------------------|----------4-6---6---|
A|-----11--|--------------------|--6---6-4-6-4-2-4-2----|----2-4-6-----------|
E|---------|--------------------|--------------------4-2|2-4-----------------|

G|------------------|
D|6-4-6---4---4-----|
A|----------6-------|
E|---------------2-2|

Intro
Verse
Bridge
Chorus x2
Crazy run
Verse
Bridge
Chorus x4
Crazy run
Chorus x5 I think
Crazy run


| /  slide up
| \  slide down
| h  hammer-on
| p  pull-off
| ~  vibrato
| +  harmonic
| x  Mute note
=============================================================================

            
            
Suggest correction
Creating personal tab
Creating personal tab
You can edit any tab online and save it as your Personal.

You can edit, replace or remove any tab part or add personal notes – all changes will be seen only by you.

Personal tabs can be accessed anytime from any device, even offline.
Learn more »
Give kudos to tab author, rate the tab!
1 2 3 4 5
comments
print report bad tab
3 comments total.
0 reply
JJBATEAST 10 Jun 27, 2010 01:21 PM

nice tab dude

+1 reply
benx3000 72 Oct 17, 2010 05:22 PM

Yeah, super nice tab. My jazz band was expecting me to sight-read this... **** that.

0 reply
trukles 204 Dec 01, 2010 12:57 PM

Man no offense but your missing out the slight alterations the bass player makes in the second verse, second chorus and last chorus. If you listen you can quite clearly hear it BUT you helped me out with a bit i was unsure about dude :]

guest
You may want to rate the tab now too:
select rating
Wanna post a correction for this tab? Suggest correction